999
dxflib 2.0.2.1
  0
SECTION
  2
HEADER
  9
$ACADVER
  1
AC1015
  9
$HANDSEED
  5
FFFF
  9
$DIMASZ
 40
2.5
  9
$GRIDUNIT
 10
0.0
 20
0.0
  9
$DIMADEC
 70
2
  9
$DIMGAP
 40
0.625
  9
$AUPREC
 70
2
  9
$LUNITS
 70
2
  9
$DIMEXO
 40
0.625
  9
$INSUNITS
 70
9
  9
$DIMLUNIT
 70
2
  9
$DIMTXT
 40
2.5
  9
$GRIDMODE
 70
1
  9
$LUPREC
 70
4
  9
$DIMSTYLE
  2
Standard
  9
$PLIMMAX
 10
5826.7716535433073659
 20
8267.7165354330718401
  9
$PLIMMIN
 10
0.0
 20
0.0
  9
$DIMEXE
 40
1.25
  9
$DIMAUNIT
 70
0
  9
$AUNITS
 70
0
  0
ENDSEC
  0
SECTION
  2
TABLES
  0
TABLE
  2
VPORT
  5
8
100
AcDbSymbolTable
 70
1
  0
VPORT
  5
30
100
AcDbSymbolTableRecord
100
AcDbViewportTableRecord
  2
*Active
 70
0
 10
0.0
 20
0.0
 11
1.0
 21
1.0
 12
286.3055555555554861
 22
148.5
 13
0.0
 23
0.0
 14
10.0
 24
10.0
 15
10.0
 25
10.0
 16
0.0
 26
0.0
 36
1.0
 17
0.0
 27
0.0
 37
0.0
 40
297.0
 41
1.92798353909465
 42
50.0
 43
0.0
 44
0.0
 50
0.0
 51
0.0
 71
0
 72
100
 73
1
 74
3
 75
1
 76
1
 77
0
 78
0
281
0
 65
1
110
0.0
120
0.0
130
0.0
111
1.0
121
0.0
131
0.0
112
0.0
122
1.0
132
0.0
 79
0
146
0.0
  0
ENDTAB
  0
TABLE
  2
LTYPE
  5
5
100
AcDbSymbolTable
 70
3
  0
LTYPE
  5
14
100
AcDbSymbolTableRecord
100
AcDbLinetypeTableRecord
  2
ByBlock
 70
0
  3

 72
65
 73
0
 40
0.0
  0
LTYPE
  5
15
100
AcDbSymbolTableRecord
100
AcDbLinetypeTableRecord
  2
ByLayer
 70
0
  3

 72
65
 73
0
 40
0.0
  0
LTYPE
  5
16
100
AcDbSymbolTableRecord
100
AcDbLinetypeTableRecord
  2
CONTINUOUS
 70
0
  3
Solid line
 72
65
 73
0
 40
0.0
  0
LTYPE
  5
31
100
AcDbSymbolTableRecord
100
AcDbLinetypeTableRecord
  2
DOT
 70
0
  3
Dot . . . . . . . . . . . . . . . . . . . . . .
 72
65
 73
2
 40
6.3499999999999996
 49
0.0
 74
0
 49
-6.3499999999999996
 74
0
  0
LTYPE
  5
32
100
AcDbSymbolTableRecord
100
AcDbLinetypeTableRecord
  2
DOT2
 70
0
  3
Dot (.5x) .....................................
 72
65
 73
2
 40
3.1749999999999998
 49
0.0
 74
0
 49
-3.1749999999999998
 74
0
  0
LTYPE
  5
33
100
AcDbSymbolTableRecord
100
AcDbLinetypeTableRecord
  2
DOTX2
 70
0
  3
Dot (2x) .  .  .  .  .  .  .  .  .  .  .  .  .
 72
65
 73
2
 40
12.6999999999999993
 49
0.0
 74
0
 49
-12.6999999999999993
 74
0
  0
LTYPE
  5
34
100
AcDbSymbolTableRecord
100
AcDbLinetypeTableRecord
  2
DASHED
 70
0
  3
Dashed __ __ __ __ __ __ __ __ __ __ __ __ __ _
 72
65
 73
2
 40
19.0500000000000007
 49
12.6999999999999993
 74
0
 49
-6.3499999999999996
 74
0
  0
LTYPE
  5
35
100
AcDbSymbolTableRecord
100
AcDbLinetypeTableRecord
  2
DASHED2
 70
0
  3
Dashed (.5x) _ _ _ _ _ _ _ _ _ _ _ _ _ _ _ _ _
 72
65
 73
2
 40
9.5250000000000004
 49
6.3499999999999996
 74
0
 49
-3.1749999999999998
 74
0
  0
LTYPE
  5
36
100
AcDbSymbolTableRecord
100
AcDbLinetypeTableRecord
  2
DASHEDX2
 70
0
  3
Dashed (2x) ____  ____  ____  ____  ____  ___
 72
65
 73
2
 40
38.1000000000000014
 49
25.3999999999999986
 74
0
 49
-12.6999999999999993
 74
0
  0
LTYPE
  5
37
100
AcDbSymbolTableRecord
100
AcDbLinetypeTableRecord
  2
DASHDOT
 70
0
  3
Dash dot __ . __ . __ . __ . __ . __ . __ . __
 72
65
 73
4
 40
25.3999999999999986
 49
12.6999999999999993
 74
0
 49
-6.3499999999999996
 74
0
 49
0.0
 74
0
 49
-6.3499999999999996
 74
0
  0
LTYPE
  5
38
100
AcDbSymbolTableRecord
100
AcDbLinetypeTableRecord
  2
DASHDOT2
 70
0
  3
Dash dot (.5x) _._._._._._._._._._._._._._._.
 72
65
 73
4
 40
12.6999999999999993
 49
6.3499999999999996
 74
0
 49
-3.1749999999999998
 74
0
 49
0.0
 74
0
 49
-3.1749999999999998
 74
0
  0
LTYPE
  5
39
100
AcDbSymbolTableRecord
100
AcDbLinetypeTableRecord
  2
DASHDOTX2
 70
0
  3
Dash dot (2x) ____  .  ____  .  ____  .  ___
 72
65
 73
4
 40
50.7999999999999972
 49
25.3999999999999986
 74
0
 49
-12.6999999999999993
 74
0
 49
0.0
 74
0
 49
-12.6999999999999993
 74
0
  0
LTYPE
  5
3A
100
AcDbSymbolTableRecord
100
AcDbLinetypeTableRecord
  2
DIVIDE
 70
0
  3
Divide ____ . . ____ . . ____ . . ____ . . ____
 72
65
 73
6
 40
31.75
 49
12.6999999999999993
 74
0
 49
-6.3499999999999996
 74
0
 49
0.0
 74
0
 49
-6.3499999999999996
 74
0
 49
0.0
 74
0
 49
-6.3499999999999996
 74
0
  0
LTYPE
  5
3B
100
AcDbSymbolTableRecord
100
AcDbLinetypeTableRecord
  2
DIVIDE2
 70
0
  3
Divide (.5x) __..__..__..__..__..__..__..__.._
 72
65
 73
6
 40
15.875
 49
6.3499999999999996
 74
0
 49
-3.1749999999999998
 74
0
 49
0.0
 74
0
 49
-3.1749999999999998
 74
0
 49
0.0
 74
0
 49
-3.1749999999999998
 74
0
  0
LTYPE
  5
3C
100
AcDbSymbolTableRecord
100
AcDbLinetypeTableRecord
  2
DIVIDEX2
 70
0
  3
Divide (2x) ________  .  .  ________  .  .  _
 72
65
 73
6
 40
63.5
 49
25.3999999999999986
 74
0
 49
-12.6999999999999993
 74
0
 49
0.0
 74
0
 49
-12.6999999999999993
 74
0
 49
0.0
 74
0
 49
-12.6999999999999993
 74
0
  0
LTYPE
  5
3D
100
AcDbSymbolTableRecord
100
AcDbLinetypeTableRecord
  2
CENTER
 70
0
  3
Center ____ _ ____ _ ____ _ ____ _ ____ _ ____
 72
65
 73
4
 40
50.7999999999999972
 49
31.75
 74
0
 49
-6.3499999999999996
 74
0
 49
6.3499999999999996
 74
0
 49
-6.3499999999999996
 74
0
  0
LTYPE
  5
3E
100
AcDbSymbolTableRecord
100
AcDbLinetypeTableRecord
  2
CENTER2
 70
0
  3
Center (.5x) ___ _ ___ _ ___ _ ___ _ ___ _ ___
 72
65
 73
4
 40
28.5749999999999993
 49
19.0500000000000007
 74
0
 49
-3.1749999999999998
 74
0
 49
3.1749999999999998
 74
0
 49
-3.1749999999999998
 74
0
  0
LTYPE
  5
3F
100
AcDbSymbolTableRecord
100
AcDbLinetypeTableRecord
  2
CENTERX2
 70
0
  3
Center (2x) ________  __  ________  __  _____
 72
65
 73
4
 40
101.5999999999999943
 49
63.5
 74
0
 49
-12.6999999999999993
 74
0
 49
12.6999999999999993
 74
0
 49
-12.6999999999999993
 74
0
  0
LTYPE
  5
40
100
AcDbSymbolTableRecord
100
AcDbLinetypeTableRecord
  2
BORDER
 70
0
  3
Border __ __ . __ __ . __ __ . __ __ . __ __ .
 72
65
 73
6
 40
44.4500000000000028
 49
12.6999999999999993
 74
0
 49
-6.3499999999999996
 74
0
 49
12.6999999999999993
 74
0
 49
-6.3499999999999996
 74
0
 49
0.0
 74
0
 49
-6.3499999999999996
 74
0
  0
LTYPE
  5
41
100
AcDbSymbolTableRecord
100
AcDbLinetypeTableRecord
  2
BORDER2
 70
0
  3
Border (.5x) __.__.__.__.__.__.__.__.__.__.__.
 72
65
 73
6
 40
22.2250000000000014
 49
6.3499999999999996
 74
0
 49
-3.1749999999999998
 74
0
 49
6.3499999999999996
 74
0
 49
-3.1749999999999998
 74
0
 49
0.0
 74
0
 49
-3.1749999999999998
 74
0
  0
LTYPE
  5
42
100
AcDbSymbolTableRecord
100
AcDbLinetypeTableRecord
  2
BORDERX2
 70
0
  3
Border (2x) ____  ____  .  ____  ____  .  ___
 72
65
 73
6
 40
88.9000000000000057
 49
25.3999999999999986
 74
0
 49
-12.6999999999999993
 74
0
 49
25.3999999999999986
 74
0
 49
-12.6999999999999993
 74
0
 49
0.0
 74
0
 49
-12.6999999999999993
 74
0
  0
ENDTAB
  0
TABLE
  2
LAYER
  5
2
100
AcDbSymbolTable
 70
1
  0
LAYER
  5
10
100
AcDbSymbolTableRecord
100
AcDbLayerTableRecord
  2
0
 70
0
 62
7
  6
CONTINUOUS
370
0
390
F
  0
ENDTAB
  0
TABLE
  2
STYLE
  5
3
100
AcDbSymbolTable
 70
1
  0
STYLE
  5
11
100
AcDbSymbolTableRecord
100
AcDbTextStyleTableRecord
  2
Standard
 70
0
 40
0.0
 41
1.0
 50
0.0
 71
0
 42
2.5
  3
txt
  4

  0
ENDTAB
  0
TABLE
  2
VIEW
  5
6
100
AcDbSymbolTable
 70
0
  0
ENDTAB
  0
TABLE
  2
UCS
  5
7
100
AcDbSymbolTable
 70
0
  0
ENDTAB
  0
TABLE
  2
APPID
  5
9
100
AcDbSymbolTable
 70
1
  0
APPID
  5
12
100
AcDbSymbolTableRecord
100
AcDbRegAppTableRecord
  2
ACAD
 70
0
  0
ENDTAB
  0
TABLE
  2
DIMSTYLE
  5
A
100
AcDbSymbolTable
 70
1
100
AcDbDimStyleTable
 71
0
  0
DIMSTYLE
105
27
100
AcDbSymbolTableRecord
100
AcDbDimStyleTableRecord
  2
Standard
 41
2.5
 42
0.625
 43
3.75
 44
1.25
 70
0
 73
0
 74
0
 77
1
 78
8
140
2.5
141
2.5
143
0.03937007874016
147
0.625
171
3
172
1
271
2
272
2
274
3
278
44
283
0
284
8
340
11
  0
ENDTAB
  0
TABLE
  2
BLOCK_RECORD
  5
1
100
AcDbSymbolTable
 70
1
  0
BLOCK_RECORD
  5
1F
100
AcDbSymbolTableRecord
100
AcDbBlockTableRecord
  2
*Model_Space
340
22
  0
BLOCK_RECORD
  5
1B
100
AcDbSymbolTableRecord
100
AcDbBlockTableRecord
  2
*Paper_Space
340
1E
  0
BLOCK_RECORD
  5
23
100
AcDbSymbolTableRecord
100
AcDbBlockTableRecord
  2
*Paper_Space0
340
26
  0
ENDTAB
  0
ENDSEC
  0
SECTION
  2
BLOCKS
  0
BLOCK
  5
20
100
AcDbEntity
  8
0
100
AcDbBlockBegin
  2
*Model_Space
 70
0
 10
0.0
 20
0.0
 30
0.0
  3
*Model_Space
  1

  0
ENDBLK
  5
21
100
AcDbEntity
  8
0
100
AcDbBlockEnd
  0
BLOCK
  5
1C
100
AcDbEntity
 67
1
  8
0
100
AcDbBlockBegin
  2
*Paper_Space
 70
0
 10
0.0
 20
0.0
 30
0.0
  3
*Paper_Space
  1

  0
ENDBLK
  5
1D
100
AcDbEntity
 67
1
  8
0
100
AcDbBlockEnd
  0
BLOCK
  5
24
100
AcDbEntity
  8
0
100
AcDbBlockBegin
  2
*Paper_Space0
 70
0
 10
0.0
 20
0.0
 30
0.0
  3
*Paper_Space0
  1

  0
ENDBLK
  5
25
100
AcDbEntity
  8
0
100
AcDbBlockEnd
  0
ENDSEC
  0
SECTION
  2
ENTITIES
  0
ARC
  5
43
100
AcDbEntity
  8
0
 62
256
370
-1
  6
ByLayer
100
AcDbCircle
 10
1181.0
 20
1639.0
 30
0.0
 40
1.0
100
AcDbArc
 50
90.0
 51
180.0
  0
LINE
  5
44
100
AcDbEntity
100
AcDbLine
  8
0
 62
256
370
-1
  6
ByLayer
 10
1181.0
 20
1640.0
 30
0.0
 11
1259.0
 21
1640.0
 31
0.0
  0
LINE
  5
45
100
AcDbEntity
100
AcDbLine
  8
0
 62
256
370
-1
  6
ByLayer
 10
390.0
 20
1650.0
 30
0.0
 11
2580.0
 21
1650.0
 31
0.0
  0
LINE
  5
46
100
AcDbEntity
100
AcDbLine
  8
0
 62
256
370
-1
  6
ByLayer
 10
390.0
 20
1650.0
 30
0.0
 11
390.0
 21
230.0
 31
0.0
  0
LINE
  5
47
100
AcDbEntity
100
AcDbLine
  8
0
 62
256
370
-1
  6
ByLayer
 10
390.0
 20
230.0
 30
0.0
 11
400.0
 21
230.0
 31
0.0
  0
LINE
  5
48
100
AcDbEntity
100
AcDbLine
  8
0
 62
256
370
-1
  6
ByLayer
 10
2570.0
 20
230.0
 30
0.0
 11
2580.0
 21
230.0
 31
0.0
  0
LINE
  5
49
100
AcDbEntity
100
AcDbLine
  8
0
 62
256
370
-1
  6
ByLayer
 10
2570.0
 20
230.0
 30
0.0
 11
2580.0
 21
230.0
 31
0.0
  0
LINE
  5
4A
100
AcDbEntity
100
AcDbLine
  8
0
 62
256
370
-1
  6
ByLayer
 10
2570.0
 20
1650.0
 30
0.0
 11
2580.0
 21
1650.0
 31
0.0
  0
LINE
  5
4B
100
AcDbEntity
100
AcDbLine
  8
0
 62
256
370
-1
  6
ByLayer
 10
2580.0
 20
1650.0
 30
0.0
 11
2580.0
 21
230.0
 31
0.0
  0
LINE
  5
4C
100
AcDbEntity
100
AcDbLine
  8
0
 62
256
370
-1
  6
ByLayer
 10
2580.0
 20
230.0
 30
0.0
 11
390.0
 21
230.0
 31
0.0
  0
LINE
  5
4D
100
AcDbEntity
100
AcDbLine
  8
0
 62
256
370
-1
  6
ByLayer
 10
500.0
 20
1700.0
 30
0.0
 11
500.0042233124183326
 21
1650.0584157054147454
 31
0.0
  0
CIRCLE
  5
4E
100
AcDbEntity
100
AcDbCircle
  8
0
 62
256
370
-1
  6
ByLayer
 10
1410.0
 20
1590.0
 30
0.0
 40
0.0
  0
LINE
  5
4F
100
AcDbEntity
100
AcDbLine
  8
0
 62
256
370
-1
  6
ByLayer
 10
940.0
 20
1500.0
 30
0.0
 11
940.0
 21
1500.0
 31
0.0
  0
LINE
  5
50
100
AcDbEntity
100
AcDbLine
  8
0
 62
256
370
-1
  6
ByLayer
 10
500.0
 20
283.0
 30
0.0
 11
500.0
 21
283.0
 31
0.0
  0
LINE
  5
51
100
AcDbEntity
100
AcDbLine
  8
0
 62
256
370
-1
  6
ByLayer
 10
500.0
 20
283.0
 30
0.0
 11
500.0
 21
283.0
 31
0.0
  0
CIRCLE
  5
52
100
AcDbEntity
100
AcDbCircle
  8
0
 62
256
370
-1
  6
ByLayer
 10
500.0
 20
1610.0
 30
0.0
 40
30.0
  0
CIRCLE
  5
53
100
AcDbEntity
100
AcDbCircle
  8
0
 62
256
370
-1
  6
ByLayer
 10
500.0
 20
270.0
 30
0.0
 40
30.0
  0
LINE
  5
54
100
AcDbEntity
100
AcDbLine
  8
0
 62
256
370
-1
  6
ByLayer
 10
349.0
 20
270.0000000000001137
 30
0.0
 11
520.0
 21
270.0
 31
0.0
  0
LINE
  5
55
100
AcDbEntity
100
AcDbLine
  8
0
 62
256
370
-1
  6
ByLayer
 10
390.0
 20
230.0
 30
0.0
 11
20.0
 21
230.0
 31
0.0
  0
CIRCLE
  5
56
100
AcDbEntity
100
AcDbCircle
  8
0
 62
256
370
-1
  6
ByLayer
 10
600.0
 20
340.0
 30
0.0
 40
14.142135623730951
  0
CIRCLE
  5
57
100
AcDbEntity
100
AcDbCircle
  8
0
 62
256
370
-1
  6
ByLayer
 10
600.0
 20
380.0
 30
0.0
 40
14.142135623730951
  0
CIRCLE
  5
58
100
AcDbEntity
100
AcDbCircle
  8
0
 62
256
370
-1
  6
ByLayer
 10
600.0
 20
420.0
 30
0.0
 40
14.142135623730951
  0
CIRCLE
  5
59
100
AcDbEntity
100
AcDbCircle
  8
0
 62
256
370
-1
  6
ByLayer
 10
600.0
 20
460.0
 30
0.0
 40
14.142135623730951
  0
CIRCLE
  5
5A
100
AcDbEntity
100
AcDbCircle
  8
0
 62
256
370
-1
  6
ByLayer
 10
560.0
 20
360.0
 30
0.0
 40
14.142135623730951
  0
CIRCLE
  5
5B
100
AcDbEntity
100
AcDbCircle
  8
0
 62
256
370
-1
  6
ByLayer
 10
560.0
 20
400.0
 30
0.0
 40
14.142135623730951
  0
CIRCLE
  5
5C
100
AcDbEntity
100
AcDbCircle
  8
0
 62
256
370
-1
  6
ByLayer
 10
560.0
 20
440.0
 30
0.0
 40
14.142135623730951
  0
CIRCLE
  5
5D
100
AcDbEntity
100
AcDbCircle
  8
0
 62
256
370
-1
  6
ByLayer
 10
560.0
 20
480.0
 30
0.0
 40
14.142135623730951
  0
CIRCLE
  5
5E
100
AcDbEntity
100
AcDbCircle
  8
0
 62
256
370
-1
  6
ByLayer
 10
550.0
 20
830.0
 30
0.0
 40
14.142135623730951
  0
CIRCLE
  5
5F
100
AcDbEntity
100
AcDbCircle
  8
0
 62
256
370
-1
  6
ByLayer
 10
550.0
 20
870.0
 30
0.0
 40
14.142135623730951
  0
CIRCLE
  5
60
100
AcDbEntity
100
AcDbCircle
  8
0
 62
256
370
-1
  6
ByLayer
 10
550.0
 20
910.0
 30
0.0
 40
14.142135623730951
  0
CIRCLE
  5
61
100
AcDbEntity
100
AcDbCircle
  8
0
 62
256
370
-1
  6
ByLayer
 10
500.0
 20
810.0
 30
0.0
 40
14.142135623730951
  0
CIRCLE
  5
62
100
AcDbEntity
100
AcDbCircle
  8
0
 62
256
370
-1
  6
ByLayer
 10
500.0
 20
850.0
 30
0.0
 40
14.142135623730951
  0
CIRCLE
  5
63
100
AcDbEntity
100
AcDbCircle
  8
0
 62
256
370
-1
  6
ByLayer
 10
500.0
 20
890.0
 30
0.0
 40
14.142135623730951
  0
CIRCLE
  5
64
100
AcDbEntity
100
AcDbCircle
  8
0
 62
256
370
-1
  6
ByLayer
 10
500.0
 20
930.0
 30
0.0
 40
14.142135623730951
  0
CIRCLE
  5
65
100
AcDbEntity
100
AcDbCircle
  8
0
 62
256
370
-1
  6
ByLayer
 10
550.0
 20
960.0
 30
0.0
 40
14.142135623730951
  0
CIRCLE
  5
66
100
AcDbEntity
100
AcDbCircle
  8
0
 62
256
370
-1
  6
ByLayer
 10
550.0
 20
1240.0
 30
0.0
 40
14.142135623730951
  0
CIRCLE
  5
67
100
AcDbEntity
100
AcDbCircle
  8
0
 62
256
370
-1
  6
ByLayer
 10
550.0
 20
1290.0
 30
0.0
 40
14.142135623730951
  0
CIRCLE
  5
68
100
AcDbEntity
100
AcDbCircle
  8
0
 62
256
370
-1
  6
ByLayer
 10
500.0
 20
1270.0
 30
0.0
 40
14.142135623730951
  0
CIRCLE
  5
69
100
AcDbEntity
100
AcDbCircle
  8
0
 62
256
370
-1
  6
ByLayer
 10
500.0
 20
1310.0
 30
0.0
 40
14.142135623730951
  0
CIRCLE
  5
6A
100
AcDbEntity
100
AcDbCircle
  8
0
 62
256
370
-1
  6
ByLayer
 10
550.0
 20
1330.0
 30
0.0
 40
14.142135623730951
  0
CIRCLE
  5
6B
100
AcDbEntity
100
AcDbCircle
  8
0
 62
256
370
-1
  6
ByLayer
 10
500.0
 20
1350.0
 30
0.0
 40
14.142135623730951
  0
CIRCLE
  5
6C
100
AcDbEntity
100
AcDbCircle
  8
0
 62
256
370
-1
  6
ByLayer
 10
550.0
 20
1370.0
 30
0.0
 40
14.142135623730951
  0
CIRCLE
  5
6D
100
AcDbEntity
100
AcDbCircle
  8
0
 62
256
370
-1
  6
ByLayer
 10
500.0
 20
1390.0
 30
0.0
 40
14.142135623730951
  0
CIRCLE
  5
6E
100
AcDbEntity
100
AcDbCircle
  8
0
 62
256
370
-1
  6
ByLayer
 10
670.0
 20
1590.0
 30
0.0
 40
22.3606797749978981
  0
CIRCLE
  5
6F
100
AcDbEntity
100
AcDbCircle
  8
0
 62
256
370
-1
  6
ByLayer
 10
670.0
 20
1340.0
 30
0.0
 40
22.3606797749978981
  0
CIRCLE
  5
70
100
AcDbEntity
100
AcDbCircle
  8
0
 62
256
370
-1
  6
ByLayer
 10
670.0
 20
1040.0
 30
0.0
 40
22.3606797749978981
  0
CIRCLE
  5
71
100
AcDbEntity
100
AcDbCircle
  8
0
 62
256
370
-1
  6
ByLayer
 10
670.0
 20
790.0
 30
0.0
 40
22.3606797749978981
  0
LINE
  5
72
100
AcDbEntity
100
AcDbLine
  8
0
 62
256
370
-1
  6
ByLayer
 10
630.0
 20
790.0
 30
0.0
 11
730.0
 21
790.0
 31
0.0
  0
LINE
  5
73
100
AcDbEntity
100
AcDbLine
  8
0
 62
256
370
-1
  6
ByLayer
 10
440.0
 20
560.0
 30
0.0
 11
440.0
 21
560.0
 31
0.0
  0
LINE
  5
74
100
AcDbEntity
100
AcDbLine
  8
0
 62
256
370
-1
  6
ByLayer
 10
440.0
 20
560.0
 30
0.0
 11
440.0
 21
560.0
 31
0.0
  0
LINE
  5
75
100
AcDbEntity
100
AcDbLine
  8
0
 62
256
370
-1
  6
ByLayer
 10
440.0
 20
560.0
 30
0.0
 11
440.0
 21
560.0
 31
0.0
  0
LINE
  5
76
100
AcDbEntity
100
AcDbLine
  8
0
 62
256
370
-1
  6
ByLayer
 10
440.0
 20
560.0
 30
0.0
 11
440.0
 21
560.0
 31
0.0
  0
CIRCLE
  5
77
100
AcDbEntity
100
AcDbCircle
  8
0
 62
256
370
-1
  6
ByLayer
 10
440.0
 20
310.0
 30
0.0
 40
14.142135623730951
  0
CIRCLE
  5
78
100
AcDbEntity
100
AcDbCircle
  8
0
 62
256
370
-1
  6
ByLayer
 10
540.0
 20
310.0
 30
0.0
 40
14.142135623730951
  0
CIRCLE
  5
79
100
AcDbEntity
100
AcDbCircle
  8
0
 62
256
370
-1
  6
ByLayer
 10
440.0
 20
540.0
 30
0.0
 40
14.142135623730951
  0
CIRCLE
  5
7A
100
AcDbEntity
100
AcDbCircle
  8
0
 62
256
370
-1
  6
ByLayer
 10
540.0
 20
540.0
 30
0.0
 40
14.142135623730951
  0
CIRCLE
  5
7B
100
AcDbEntity
100
AcDbCircle
  8
0
 62
256
370
-1
  6
ByLayer
 10
500.0
 20
510.0
 30
0.0
 40
22.3606797749978981
  0
CIRCLE
  5
7C
100
AcDbEntity
100
AcDbCircle
  8
0
 62
256
370
-1
  6
ByLayer
 10
500.0
 20
340.0
 30
0.0
 40
22.3606797749978981
  0
CIRCLE
  5
7D
100
AcDbEntity
100
AcDbCircle
  8
0
 62
256
370
-1
  6
ByLayer
 10
540.0
 20
720.0
 30
0.0
 40
28.284271247461902
  0
CIRCLE
  5
7E
100
AcDbEntity
100
AcDbCircle
  8
0
 62
256
370
-1
  6
ByLayer
 10
540.0
 20
1060.0
 30
0.0
 40
28.284271247461902
  0
CIRCLE
  5
7F
100
AcDbEntity
100
AcDbCircle
  8
0
 62
256
370
-1
  6
ByLayer
 10
540.0
 20
1150.0
 30
0.0
 40
28.284271247461902
  0
CIRCLE
  5
80
100
AcDbEntity
100
AcDbCircle
  8
0
 62
256
370
-1
  6
ByLayer
 10
540.0
 20
1520.0
 30
0.0
 40
28.284271247461902
  0
LINE
  5
81
100
AcDbEntity
100
AcDbLine
  8
0
 62
256
370
-1
  6
ByLayer
 10
670.0
 20
1630.0
 30
0.0
 11
670.0
 21
230.0
 31
0.0
  0
CIRCLE
  5
82
100
AcDbEntity
100
AcDbCircle
  8
0
 62
256
370
-1
  6
ByLayer
 10
450.0
 20
590.0
 30
0.0
 40
14.142135623730951
  0
LINE
  5
83
100
AcDbEntity
100
AcDbLine
  8
0
 62
256
370
-1
  6
ByLayer
 10
420.0
 20
660.0
 30
0.0
 11
480.0
 21
660.0
 31
0.0
  0
LINE
  5
84
100
AcDbEntity
100
AcDbLine
  8
0
 62
256
370
-1
  6
ByLayer
 10
480.0
 20
660.0
 30
0.0
 11
480.0
 21
570.0
 31
0.0
  0
LINE
  5
85
100
AcDbEntity
100
AcDbLine
  8
0
 62
256
370
-1
  6
ByLayer
 10
480.0
 20
570.0
 30
0.0
 11
420.0
 21
570.0
 31
0.0
  0
LINE
  5
86
100
AcDbEntity
100
AcDbLine
  8
0
 62
256
370
-1
  6
ByLayer
 10
420.0
 20
570.0
 30
0.0
 11
420.0
 21
660.0
 31
0.0
  0
LINE
  5
87
100
AcDbEntity
100
AcDbLine
  8
0
 62
256
370
-1
  6
ByLayer
 10
340.0
 20
540.0
 30
0.0
 11
340.0
 21
310.0
 31
0.0
  0
LINE
  5
88
100
AcDbEntity
100
AcDbLine
  8
0
 62
256
370
-1
  6
ByLayer
 10
280.0
 20
480.0
 30
0.0
 11
580.0
 21
480.0
 31
0.0
  0
LINE
  5
89
100
AcDbEntity
100
AcDbLine
  8
0
 62
256
370
-1
  6
ByLayer
 10
340.0
 20
310.0
 30
0.0
 11
630.0
 21
310.0
 31
0.0
  0
LINE
  5
8A
100
AcDbEntity
100
AcDbLine
  8
0
 62
256
370
-1
  6
ByLayer
 10
630.0
 20
540.0
 30
0.0
 11
630.0
 21
310.0
 31
0.0
  0
LINE
  5
8B
100
AcDbEntity
100
AcDbLine
  8
0
 62
256
370
-1
  6
ByLayer
 10
340.0
 20
540.0
 30
0.0
 11
630.0
 21
540.0
 31
0.0
  0
LINE
  5
8C
100
AcDbEntity
100
AcDbLine
  8
0
 62
256
370
-1
  6
ByLayer
 10
390.0
 20
680.0
 30
0.0
 11
580.0
 21
680.0
 31
0.0
  0
LINE
  5
8D
100
AcDbEntity
100
AcDbLine
  8
0
 62
256
370
-1
  6
ByLayer
 10
390.0
 20
1100.0
 30
0.0
 11
580.0
 21
1100.0
 31
0.0
  0
LINE
  5
8E
100
AcDbEntity
100
AcDbLine
  8
0
 62
256
370
-1
  6
ByLayer
 10
580.0
 20
1100.0
 30
0.0
 11
580.0
 21
680.0
 31
0.0
  0
LINE
  5
8F
100
AcDbEntity
100
AcDbLine
  8
0
 62
256
370
-1
  6
ByLayer
 10
310.0
 20
760.0
 30
0.0
 11
390.0
 21
760.0
 31
0.0
  0
LINE
  5
90
100
AcDbEntity
100
AcDbLine
  8
0
 62
256
370
-1
  6
ByLayer
 10
310.0
 20
1010.0
 30
0.0
 11
310.0
 21
760.0
 31
0.0
  0
LINE
  5
91
100
AcDbEntity
100
AcDbLine
  8
0
 62
256
370
-1
  6
ByLayer
 10
310.0
 20
1010.0
 30
0.0
 11
390.0
 21
1010.0
 31
0.0
  0
LINE
  5
92
100
AcDbEntity
100
AcDbLine
  8
0
 62
256
370
-1
  6
ByLayer
 10
390.0
 20
1110.0
 30
0.0
 11
580.0
 21
1110.0
 31
0.0
  0
LINE
  5
93
100
AcDbEntity
100
AcDbLine
  8
0
 62
256
370
-1
  6
ByLayer
 10
390.0
 20
1560.0
 30
0.0
 11
580.0
 21
1560.0
 31
0.0
  0
LINE
  5
94
100
AcDbEntity
100
AcDbLine
  8
0
 62
256
370
-1
  6
ByLayer
 10
580.0
 20
1560.0
 30
0.0
 11
580.0
 21
1110.0
 31
0.0
  0
LINE
  5
95
100
AcDbEntity
100
AcDbLine
  8
0
 62
256
370
-1
  6
ByLayer
 10
300.0
 20
1460.0
 30
0.0
 11
390.0
 21
1460.0
 31
0.0
  0
LINE
  5
96
100
AcDbEntity
100
AcDbLine
  8
0
 62
256
370
-1
  6
ByLayer
 10
300.0
 20
1210.0
 30
0.0
 11
390.0
 21
1210.0
 31
0.0
  0
LINE
  5
97
100
AcDbEntity
100
AcDbLine
  8
0
 62
256
370
-1
  6
ByLayer
 10
300.0
 20
1460.0
 30
0.0
 11
300.0
 21
1210.0
 31
0.0
  0
CIRCLE
  5
98
100
AcDbEntity
100
AcDbCircle
  8
0
 62
256
370
-1
  6
ByLayer
 10
2390.0
 20
320.0
 30
0.0
 40
19.0
  0
CIRCLE
  5
99
100
AcDbEntity
100
AcDbCircle
  8
0
 62
256
370
-1
  6
ByLayer
 10
2390.0
 20
360.0
 30
0.0
 40
19.0262975904404463
  0
CIRCLE
  5
9A
100
AcDbEntity
100
AcDbCircle
  8
0
 62
256
370
-1
  6
ByLayer
 10
2390.0
 20
400.0
 30
0.0
 40
19.0
  0
CIRCLE
  5
9B
100
AcDbEntity
100
AcDbCircle
  8
0
 62
256
370
-1
  6
ByLayer
 10
2390.0
 20
440.0
 30
0.0
 40
19.0
  0
CIRCLE
  5
9C
100
AcDbEntity
100
AcDbCircle
  8
0
 62
256
370
-1
  6
ByLayer
 10
2390.0
 20
480.0
 30
0.0
 40
19.0
  0
CIRCLE
  5
9D
100
AcDbEntity
100
AcDbCircle
  8
0
 62
256
370
-1
  6
ByLayer
 10
2390.0
 20
520.0
 30
0.0
 40
19.0
  0
CIRCLE
  5
9E
100
AcDbEntity
100
AcDbCircle
  8
0
 62
256
370
-1
  6
ByLayer
 10
2390.0
 20
560.0
 30
0.0
 40
19.0
  0
CIRCLE
  5
9F
100
AcDbEntity
100
AcDbCircle
  8
0
 62
256
370
-1
  6
ByLayer
 10
2390.0
 20
600.0
 30
0.0
 40
19.0
  0
CIRCLE
  5
A0
100
AcDbEntity
100
AcDbCircle
  8
0
 62
256
370
-1
  6
ByLayer
 10
2390.0
 20
640.0
 30
0.0
 40
19.0
  0
CIRCLE
  5
A1
100
AcDbEntity
100
AcDbCircle
  8
0
 62
256
370
-1
  6
ByLayer
 10
2390.0
 20
680.0
 30
0.0
 40
19.0
  0
CIRCLE
  5
A2
100
AcDbEntity
100
AcDbCircle
  8
0
 62
256
370
-1
  6
ByLayer
 10
2390.0
 20
720.0
 30
0.0
 40
19.0
  0
CIRCLE
  5
A3
100
AcDbEntity
100
AcDbCircle
  8
0
 62
256
370
-1
  6
ByLayer
 10
2390.0
 20
760.0
 30
0.0
 40
19.0
  0
CIRCLE
  5
A4
100
AcDbEntity
100
AcDbCircle
  8
0
 62
256
370
-1
  6
ByLayer
 10
2390.0
 20
800.0
 30
0.0
 40
19.0
  0
CIRCLE
  5
A5
100
AcDbEntity
100
AcDbCircle
  8
0
 62
256
370
-1
  6
ByLayer
 10
2390.0
 20
840.0
 30
0.0
 40
19.0
  0
CIRCLE
  5
A6
100
AcDbEntity
100
AcDbCircle
  8
0
 62
256
370
-1
  6
ByLayer
 10
2390.0
 20
880.0
 30
0.0
 40
19.0
  0
CIRCLE
  5
A7
100
AcDbEntity
100
AcDbCircle
  8
0
 62
256
370
-1
  6
ByLayer
 10
2390.0
 20
920.0
 30
0.0
 40
19.0
  0
CIRCLE
  5
A8
100
AcDbEntity
100
AcDbCircle
  8
0
 62
256
370
-1
  6
ByLayer
 10
2390.0
 20
960.0
 30
0.0
 40
19.0
  0
CIRCLE
  5
A9
100
AcDbEntity
100
AcDbCircle
  8
0
 62
256
370
-1
  6
ByLayer
 10
2390.0
 20
1000.0
 30
0.0
 40
19.0
  0
CIRCLE
  5
AA
100
AcDbEntity
100
AcDbCircle
  8
0
 62
256
370
-1
  6
ByLayer
 10
2390.0
 20
1040.0
 30
0.0
 40
19.0
  0
CIRCLE
  5
AB
100
AcDbEntity
100
AcDbCircle
  8
0
 62
256
370
-1
  6
ByLayer
 10
2390.0
 20
1080.0
 30
0.0
 40
19.0
  0
CIRCLE
  5
AC
100
AcDbEntity
100
AcDbCircle
  8
0
 62
256
370
-1
  6
ByLayer
 10
2390.0
 20
1120.0
 30
0.0
 40
19.0
  0
CIRCLE
  5
AD
100
AcDbEntity
100
AcDbCircle
  8
0
 62
256
370
-1
  6
ByLayer
 10
2390.0
 20
1160.0
 30
0.0
 40
19.0
  0
CIRCLE
  5
AE
100
AcDbEntity
100
AcDbCircle
  8
0
 62
256
370
-1
  6
ByLayer
 10
2390.0
 20
1200.0
 30
0.0
 40
19.0
  0
CIRCLE
  5
AF
100
AcDbEntity
100
AcDbCircle
  8
0
 62
256
370
-1
  6
ByLayer
 10
2390.0
 20
1240.0
 30
0.0
 40
19.0
  0
CIRCLE
  5
B0
100
AcDbEntity
100
AcDbCircle
  8
0
 62
256
370
-1
  6
ByLayer
 10
2390.0
 20
1280.0
 30
0.0
 40
19.0
  0
CIRCLE
  5
B1
100
AcDbEntity
100
AcDbCircle
  8
0
 62
256
370
-1
  6
ByLayer
 10
2390.0
 20
1320.0
 30
0.0
 40
19.0
  0
CIRCLE
  5
B2
100
AcDbEntity
100
AcDbCircle
  8
0
 62
256
370
-1
  6
ByLayer
 10
2390.0
 20
1360.0
 30
0.0
 40
19.0
  0
CIRCLE
  5
B3
100
AcDbEntity
100
AcDbCircle
  8
0
 62
256
370
-1
  6
ByLayer
 10
2390.0
 20
1400.0
 30
0.0
 40
19.0
  0
CIRCLE
  5
B4
100
AcDbEntity
100
AcDbCircle
  8
0
 62
256
370
-1
  6
ByLayer
 10
2390.0
 20
1440.0
 30
0.0
 40
19.0
  0
CIRCLE
  5
B5
100
AcDbEntity
100
AcDbCircle
  8
0
 62
256
370
-1
  6
ByLayer
 10
2390.0
 20
1480.0
 30
0.0
 40
19.0
  0
CIRCLE
  5
B6
100
AcDbEntity
100
AcDbCircle
  8
0
 62
256
370
-1
  6
ByLayer
 10
2390.0
 20
1520.0
 30
0.0
 40
19.0
  0
CIRCLE
  5
B7
100
AcDbEntity
100
AcDbCircle
  8
0
 62
256
370
-1
  6
ByLayer
 10
2430.0
 20
1520.0
 30
0.0
 40
19.0
  0
CIRCLE
  5
B8
100
AcDbEntity
100
AcDbCircle
  8
0
 62
256
370
-1
  6
ByLayer
 10
2430.0
 20
1480.0
 30
0.0
 40
19.0
  0
CIRCLE
  5
B9
100
AcDbEntity
100
AcDbCircle
  8
0
 62
256
370
-1
  6
ByLayer
 10
2430.0
 20
1440.0
 30
0.0
 40
19.0
  0
CIRCLE
  5
BA
100
AcDbEntity
100
AcDbCircle
  8
0
 62
256
370
-1
  6
ByLayer
 10
2430.0
 20
1400.0
 30
0.0
 40
19.0
  0
CIRCLE
  5
BB
100
AcDbEntity
100
AcDbCircle
  8
0
 62
256
370
-1
  6
ByLayer
 10
2430.0
 20
1360.0
 30
0.0
 40
19.0
  0
CIRCLE
  5
BC
100
AcDbEntity
100
AcDbCircle
  8
0
 62
256
370
-1
  6
ByLayer
 10
2430.0
 20
1320.0
 30
0.0
 40
19.0
  0
CIRCLE
  5
BD
100
AcDbEntity
100
AcDbCircle
  8
0
 62
256
370
-1
  6
ByLayer
 10
2430.0
 20
1280.0
 30
0.0
 40
19.0
  0
CIRCLE
  5
BE
100
AcDbEntity
100
AcDbCircle
  8
0
 62
256
370
-1
  6
ByLayer
 10
2430.0
 20
1240.0
 30
0.0
 40
19.0
  0
CIRCLE
  5
BF
100
AcDbEntity
100
AcDbCircle
  8
0
 62
256
370
-1
  6
ByLayer
 10
2430.0
 20
1200.0
 30
0.0
 40
19.0
  0
CIRCLE
  5
C0
100
AcDbEntity
100
AcDbCircle
  8
0
 62
256
370
-1
  6
ByLayer
 10
2430.0
 20
1160.0
 30
0.0
 40
19.0
  0
CIRCLE
  5
C1
100
AcDbEntity
100
AcDbCircle
  8
0
 62
256
370
-1
  6
ByLayer
 10
2430.0
 20
1120.0
 30
0.0
 40
19.0
  0
CIRCLE
  5
C2
100
AcDbEntity
100
AcDbCircle
  8
0
 62
256
370
-1
  6
ByLayer
 10
2430.0
 20
1080.0
 30
0.0
 40
19.0
  0
CIRCLE
  5
C3
100
AcDbEntity
100
AcDbCircle
  8
0
 62
256
370
-1
  6
ByLayer
 10
2430.0
 20
1040.0
 30
0.0
 40
19.0
  0
CIRCLE
  5
C4
100
AcDbEntity
100
AcDbCircle
  8
0
 62
256
370
-1
  6
ByLayer
 10
2430.0
 20
1000.0
 30
0.0
 40
19.0
  0
CIRCLE
  5
C5
100
AcDbEntity
100
AcDbCircle
  8
0
 62
256
370
-1
  6
ByLayer
 10
2430.0
 20
960.0
 30
0.0
 40
19.0
  0
CIRCLE
  5
C6
100
AcDbEntity
100
AcDbCircle
  8
0
 62
256
370
-1
  6
ByLayer
 10
2430.0
 20
920.0
 30
0.0
 40
19.0
  0
CIRCLE
  5
C7
100
AcDbEntity
100
AcDbCircle
  8
0
 62
256
370
-1
  6
ByLayer
 10
2430.0
 20
880.0
 30
0.0
 40
19.0
  0
CIRCLE
  5
C8
100
AcDbEntity
100
AcDbCircle
  8
0
 62
256
370
-1
  6
ByLayer
 10
2430.0
 20
840.0
 30
0.0
 40
19.0
  0
CIRCLE
  5
C9
100
AcDbEntity
100
AcDbCircle
  8
0
 62
256
370
-1
  6
ByLayer
 10
2430.0
 20
800.0
 30
0.0
 40
19.0
  0
CIRCLE
  5
CA
100
AcDbEntity
100
AcDbCircle
  8
0
 62
256
370
-1
  6
ByLayer
 10
2430.0
 20
760.0
 30
0.0
 40
19.0
  0
CIRCLE
  5
CB
100
AcDbEntity
100
AcDbCircle
  8
0
 62
256
370
-1
  6
ByLayer
 10
2430.0
 20
720.0
 30
0.0
 40
19.0
  0
CIRCLE
  5
CC
100
AcDbEntity
100
AcDbCircle
  8
0
 62
256
370
-1
  6
ByLayer
 10
2430.0
 20
680.0
 30
0.0
 40
19.0
  0
CIRCLE
  5
CD
100
AcDbEntity
100
AcDbCircle
  8
0
 62
256
370
-1
  6
ByLayer
 10
2430.0
 20
640.0
 30
0.0
 40
19.0
  0
CIRCLE
  5
CE
100
AcDbEntity
100
AcDbCircle
  8
0
 62
256
370
-1
  6
ByLayer
 10
2430.0
 20
600.0
 30
0.0
 40
19.0
  0
CIRCLE
  5
CF
100
AcDbEntity
100
AcDbCircle
  8
0
 62
256
370
-1
  6
ByLayer
 10
2430.0
 20
560.0
 30
0.0
 40
19.0
  0
CIRCLE
  5
D0
100
AcDbEntity
100
AcDbCircle
  8
0
 62
256
370
-1
  6
ByLayer
 10
2430.0
 20
520.0
 30
0.0
 40
19.0
  0
CIRCLE
  5
D1
100
AcDbEntity
100
AcDbCircle
  8
0
 62
256
370
-1
  6
ByLayer
 10
2430.0
 20
480.0
 30
0.0
 40
19.0
  0
CIRCLE
  5
D2
100
AcDbEntity
100
AcDbCircle
  8
0
 62
256
370
-1
  6
ByLayer
 10
2430.0
 20
440.0
 30
0.0
 40
19.0
  0
CIRCLE
  5
D3
100
AcDbEntity
100
AcDbCircle
  8
0
 62
256
370
-1
  6
ByLayer
 10
2430.0
 20
400.0
 30
0.0
 40
19.0
  0
CIRCLE
  5
D4
100
AcDbEntity
100
AcDbCircle
  8
0
 62
256
370
-1
  6
ByLayer
 10
2430.0
 20
360.0
 30
0.0
 40
19.0
  0
CIRCLE
  5
D5
100
AcDbEntity
100
AcDbCircle
  8
0
 62
256
370
-1
  6
ByLayer
 10
2430.0
 20
320.0
 30
0.0
 40
19.0
  0
CIRCLE
  5
D6
100
AcDbEntity
100
AcDbCircle
  8
0
 62
256
370
-1
  6
ByLayer
 10
2470.0
 20
320.0
 30
0.0
 40
19.0
  0
CIRCLE
  5
D7
100
AcDbEntity
100
AcDbCircle
  8
0
 62
256
370
-1
  6
ByLayer
 10
2470.0
 20
360.0
 30
0.0
 40
19.0
  0
CIRCLE
  5
D8
100
AcDbEntity
100
AcDbCircle
  8
0
 62
256
370
-1
  6
ByLayer
 10
2470.0
 20
400.0
 30
0.0
 40
19.0
  0
CIRCLE
  5
D9
100
AcDbEntity
100
AcDbCircle
  8
0
 62
256
370
-1
  6
ByLayer
 10
2470.0
 20
440.0
 30
0.0
 40
19.0
  0
CIRCLE
  5
DA
100
AcDbEntity
100
AcDbCircle
  8
0
 62
256
370
-1
  6
ByLayer
 10
2470.0
 20
480.0
 30
0.0
 40
19.0
  0
CIRCLE
  5
DB
100
AcDbEntity
100
AcDbCircle
  8
0
 62
256
370
-1
  6
ByLayer
 10
2470.0
 20
520.0
 30
0.0
 40
19.0
  0
CIRCLE
  5
DC
100
AcDbEntity
100
AcDbCircle
  8
0
 62
256
370
-1
  6
ByLayer
 10
2470.0
 20
560.0
 30
0.0
 40
19.0
  0
CIRCLE
  5
DD
100
AcDbEntity
100
AcDbCircle
  8
0
 62
256
370
-1
  6
ByLayer
 10
2470.0
 20
600.0
 30
0.0
 40
19.0
  0
CIRCLE
  5
DE
100
AcDbEntity
100
AcDbCircle
  8
0
 62
256
370
-1
  6
ByLayer
 10
2470.0
 20
640.0
 30
0.0
 40
19.0
  0
CIRCLE
  5
DF
100
AcDbEntity
100
AcDbCircle
  8
0
 62
256
370
-1
  6
ByLayer
 10
2470.0
 20
680.0
 30
0.0
 40
19.0
  0
CIRCLE
  5
E0
100
AcDbEntity
100
AcDbCircle
  8
0
 62
256
370
-1
  6
ByLayer
 10
2470.0
 20
720.0
 30
0.0
 40
19.0
  0
CIRCLE
  5
E1
100
AcDbEntity
100
AcDbCircle
  8
0
 62
256
370
-1
  6
ByLayer
 10
2470.0
 20
760.0
 30
0.0
 40
19.0
  0
CIRCLE
  5
E2
100
AcDbEntity
100
AcDbCircle
  8
0
 62
256
370
-1
  6
ByLayer
 10
2470.0
 20
800.0
 30
0.0
 40
19.0
  0
CIRCLE
  5
E3
100
AcDbEntity
100
AcDbCircle
  8
0
 62
256
370
-1
  6
ByLayer
 10
2470.0
 20
840.0
 30
0.0
 40
19.0
  0
CIRCLE
  5
E4
100
AcDbEntity
100
AcDbCircle
  8
0
 62
256
370
-1
  6
ByLayer
 10
2470.0
 20
880.0
 30
0.0
 40
19.0
  0
CIRCLE
  5
E5
100
AcDbEntity
100
AcDbCircle
  8
0
 62
256
370
-1
  6
ByLayer
 10
2470.0
 20
920.0
 30
0.0
 40
19.0
  0
CIRCLE
  5
E6
100
AcDbEntity
100
AcDbCircle
  8
0
 62
256
370
-1
  6
ByLayer
 10
2470.0
 20
960.0
 30
0.0
 40
19.0
  0
CIRCLE
  5
E7
100
AcDbEntity
100
AcDbCircle
  8
0
 62
256
370
-1
  6
ByLayer
 10
2470.0
 20
1000.0
 30
0.0
 40
19.0
  0
CIRCLE
  5
E8
100
AcDbEntity
100
AcDbCircle
  8
0
 62
256
370
-1
  6
ByLayer
 10
2470.0
 20
1040.0
 30
0.0
 40
19.0262975904404463
  0
CIRCLE
  5
E9
100
AcDbEntity
100
AcDbCircle
  8
0
 62
256
370
-1
  6
ByLayer
 10
2470.0
 20
1080.0
 30
0.0
 40
19.0
  0
CIRCLE
  5
EA
100
AcDbEntity
100
AcDbCircle
  8
0
 62
256
370
-1
  6
ByLayer
 10
2470.0
 20
1160.0
 30
0.0
 40
19.0
  0
CIRCLE
  5
EB
100
AcDbEntity
100
AcDbCircle
  8
0
 62
256
370
-1
  6
ByLayer
 10
2470.0
 20
1200.0
 30
0.0
 40
19.0
  0
CIRCLE
  5
EC
100
AcDbEntity
100
AcDbCircle
  8
0
 62
256
370
-1
  6
ByLayer
 10
2470.0
 20
1240.0
 30
0.0
 40
19.0
  0
CIRCLE
  5
ED
100
AcDbEntity
100
AcDbCircle
  8
0
 62
256
370
-1
  6
ByLayer
 10
2470.0
 20
1280.0
 30
0.0
 40
19.0
  0
CIRCLE
  5
EE
100
AcDbEntity
100
AcDbCircle
  8
0
 62
256
370
-1
  6
ByLayer
 10
2470.0
 20
1320.0
 30
0.0
 40
19.0
  0
CIRCLE
  5
EF
100
AcDbEntity
100
AcDbCircle
  8
0
 62
256
370
-1
  6
ByLayer
 10
2470.0
 20
1360.0
 30
0.0
 40
19.0
  0
CIRCLE
  5
F0
100
AcDbEntity
100
AcDbCircle
  8
0
 62
256
370
-1
  6
ByLayer
 10
2470.0
 20
1400.0
 30
0.0
 40
19.0262975904404463
  0
CIRCLE
  5
F1
100
AcDbEntity
100
AcDbCircle
  8
0
 62
256
370
-1
  6
ByLayer
 10
2470.0
 20
1440.0
 30
0.0
 40
19.0
  0
CIRCLE
  5
F2
100
AcDbEntity
100
AcDbCircle
  8
0
 62
256
370
-1
  6
ByLayer
 10
2470.0
 20
1480.0
 30
0.0
 40
19.0262975904404463
  0
CIRCLE
  5
F3
100
AcDbEntity
100
AcDbCircle
  8
0
 62
256
370
-1
  6
ByLayer
 10
2470.0
 20
1520.0
 30
0.0
 40
19.0
  0
CIRCLE
  5
F4
100
AcDbEntity
100
AcDbCircle
  8
0
 62
256
370
-1
  6
ByLayer
 10
2470.0
 20
1120.0
 30
0.0
 40
19.0
  0
CIRCLE
  5
F5
100
AcDbEntity
100
AcDbCircle
  8
0
 62
256
370
-1
  6
ByLayer
 10
2538.9883984930124825
 20
1439.9744001760018364
 30
0.0
 40
20.0
  0
LINE
  5
F6
100
AcDbEntity
100
AcDbLine
  8
0
 62
256
370
-1
  6
ByLayer
 10
2520.0
 20
1470.0
 30
0.0
 11
2560.0
 21
1470.0
 31
0.0
  0
LINE
  5
F7
100
AcDbEntity
100
AcDbLine
  8
0
 62
256
370
-1
  6
ByLayer
 10
2560.0
 20
1470.0
 30
0.0
 11
2560.0
 21
1510.0
 31
0.0
  0
LINE
  5
F8
100
AcDbEntity
100
AcDbLine
  8
0
 62
256
370
-1
  6
ByLayer
 10
2560.0
 20
1510.0
 30
0.0
 11
2520.0
 21
1510.0
 31
0.0
  0
LINE
  5
F9
100
AcDbEntity
100
AcDbLine
  8
0
 62
256
370
-1
  6
ByLayer
 10
2520.0
 20
1510.0
 30
0.0
 11
2520.0
 21
1470.0
 31
0.0
  0
LINE
  5
FA
100
AcDbEntity
100
AcDbLine
  8
0
 62
256
370
-1
  6
ByLayer
 10
2510.0
 20
1520.0
 30
0.0
 11
2570.0
 21
1520.0
 31
0.0
  0
LINE
  5
FB
100
AcDbEntity
100
AcDbLine
  8
0
 62
256
370
-1
  6
ByLayer
 10
2570.0
 20
1520.0
 30
0.0
 11
2570.0
 21
1410.0
 31
0.0
  0
LINE
  5
FC
100
AcDbEntity
100
AcDbLine
  8
0
 62
256
370
-1
  6
ByLayer
 10
2570.0
 20
1410.0
 30
0.0
 11
2510.0
 21
1410.0
 31
0.0
  0
LINE
  5
FD
100
AcDbEntity
100
AcDbLine
  8
0
 62
256
370
-1
  6
ByLayer
 10
2510.0
 20
1410.0
 30
0.0
 11
2510.0
 21
1520.0
 31
0.0
  0
CIRCLE
  5
FE
100
AcDbEntity
100
AcDbCircle
  8
0
 62
256
370
-1
  6
ByLayer
 10
2538.9883984930124825
 20
1319.9744001760018364
 30
0.0
 40
20.0
  0
LINE
  5
FF
100
AcDbEntity
100
AcDbLine
  8
0
 62
256
370
-1
  6
ByLayer
 10
2520.0
 20
1350.0
 30
0.0
 11
2560.0
 21
1350.0
 31
0.0
  0
LINE
  5
100
100
AcDbEntity
100
AcDbLine
  8
0
 62
256
370
-1
  6
ByLayer
 10
2560.0
 20
1350.0
 30
0.0
 11
2560.0
 21
1390.0
 31
0.0
  0
LINE
  5
101
100
AcDbEntity
100
AcDbLine
  8
0
 62
256
370
-1
  6
ByLayer
 10
2560.0
 20
1390.0
 30
0.0
 11
2520.0
 21
1390.0
 31
0.0
  0
LINE
  5
102
100
AcDbEntity
100
AcDbLine
  8
0
 62
256
370
-1
  6
ByLayer
 10
2520.0
 20
1390.0
 30
0.0
 11
2520.0
 21
1350.0
 31
0.0
  0
LINE
  5
103
100
AcDbEntity
100
AcDbLine
  8
0
 62
256
370
-1
  6
ByLayer
 10
2510.0
 20
1400.0
 30
0.0
 11
2570.0
 21
1400.0
 31
0.0
  0
LINE
  5
104
100
AcDbEntity
100
AcDbLine
  8
0
 62
256
370
-1
  6
ByLayer
 10
2570.0
 20
1400.0
 30
0.0
 11
2570.0
 21
1290.0
 31
0.0
  0
LINE
  5
105
100
AcDbEntity
100
AcDbLine
  8
0
 62
256
370
-1
  6
ByLayer
 10
2570.0
 20
1290.0
 30
0.0
 11
2510.0
 21
1290.0
 31
0.0
  0
LINE
  5
106
100
AcDbEntity
100
AcDbLine
  8
0
 62
256
370
-1
  6
ByLayer
 10
2510.0
 20
1290.0
 30
0.0
 11
2510.0
 21
1400.0
 31
0.0
  0
CIRCLE
  5
107
100
AcDbEntity
100
AcDbCircle
  8
0
 62
256
370
-1
  6
ByLayer
 10
2538.9883984930124825
 20
1199.9744001760018364
 30
0.0
 40
20.0
  0
LINE
  5
108
100
AcDbEntity
100
AcDbLine
  8
0
 62
256
370
-1
  6
ByLayer
 10
2520.0
 20
1230.0
 30
0.0
 11
2560.0
 21
1230.0
 31
0.0
  0
LINE
  5
109
100
AcDbEntity
100
AcDbLine
  8
0
 62
256
370
-1
  6
ByLayer
 10
2560.0
 20
1230.0
 30
0.0
 11
2560.0
 21
1270.0
 31
0.0
  0
LINE
  5
10A
100
AcDbEntity
100
AcDbLine
  8
0
 62
256
370
-1
  6
ByLayer
 10
2560.0
 20
1270.0
 30
0.0
 11
2520.0
 21
1270.0
 31
0.0
  0
LINE
  5
10B
100
AcDbEntity
100
AcDbLine
  8
0
 62
256
370
-1
  6
ByLayer
 10
2520.0
 20
1270.0
 30
0.0
 11
2520.0
 21
1230.0
 31
0.0
  0
LINE
  5
10C
100
AcDbEntity
100
AcDbLine
  8
0
 62
256
370
-1
  6
ByLayer
 10
2510.0
 20
1280.0
 30
0.0
 11
2570.0
 21
1280.0
 31
0.0
  0
LINE
  5
10D
100
AcDbEntity
100
AcDbLine
  8
0
 62
256
370
-1
  6
ByLayer
 10
2570.0
 20
1280.0
 30
0.0
 11
2570.0
 21
1170.0
 31
0.0
  0
LINE
  5
10E
100
AcDbEntity
100
AcDbLine
  8
0
 62
256
370
-1
  6
ByLayer
 10
2570.0
 20
1170.0
 30
0.0
 11
2510.0
 21
1170.0
 31
0.0
  0
LINE
  5
10F
100
AcDbEntity
100
AcDbLine
  8
0
 62
256
370
-1
  6
ByLayer
 10
2510.0
 20
1170.0
 30
0.0
 11
2510.0
 21
1280.0
 31
0.0
  0
CIRCLE
  5
110
100
AcDbEntity
100
AcDbCircle
  8
0
 62
256
370
-1
  6
ByLayer
 10
2538.9883984930124825
 20
1079.9744001760018364
 30
0.0
 40
20.0
  0
LINE
  5
111
100
AcDbEntity
100
AcDbLine
  8
0
 62
256
370
-1
  6
ByLayer
 10
2520.0
 20
1110.0
 30
0.0
 11
2560.0
 21
1110.0
 31
0.0
  0
LINE
  5
112
100
AcDbEntity
100
AcDbLine
  8
0
 62
256
370
-1
  6
ByLayer
 10
2560.0
 20
1110.0
 30
0.0
 11
2560.0
 21
1150.0
 31
0.0
  0
LINE
  5
113
100
AcDbEntity
100
AcDbLine
  8
0
 62
256
370
-1
  6
ByLayer
 10
2560.0
 20
1150.0
 30
0.0
 11
2520.0
 21
1150.0
 31
0.0
  0
LINE
  5
114
100
AcDbEntity
100
AcDbLine
  8
0
 62
256
370
-1
  6
ByLayer
 10
2520.0
 20
1150.0
 30
0.0
 11
2520.0
 21
1110.0
 31
0.0
  0
LINE
  5
115
100
AcDbEntity
100
AcDbLine
  8
0
 62
256
370
-1
  6
ByLayer
 10
2510.0
 20
1160.0
 30
0.0
 11
2570.0
 21
1160.0
 31
0.0
  0
LINE
  5
116
100
AcDbEntity
100
AcDbLine
  8
0
 62
256
370
-1
  6
ByLayer
 10
2570.0
 20
1160.0
 30
0.0
 11
2570.0
 21
1050.0
 31
0.0
  0
LINE
  5
117
100
AcDbEntity
100
AcDbLine
  8
0
 62
256
370
-1
  6
ByLayer
 10
2570.0
 20
1050.0
 30
0.0
 11
2510.0
 21
1050.0
 31
0.0
  0
LINE
  5
118
100
AcDbEntity
100
AcDbLine
  8
0
 62
256
370
-1
  6
ByLayer
 10
2510.0
 20
1050.0
 30
0.0
 11
2510.0
 21
1160.0
 31
0.0
  0
CIRCLE
  5
119
100
AcDbEntity
100
AcDbCircle
  8
0
 62
256
370
-1
  6
ByLayer
 10
2538.9883984930124825
 20
959.9744001760018364
 30
0.0
 40
20.0
  0
LINE
  5
11A
100
AcDbEntity
100
AcDbLine
  8
0
 62
256
370
-1
  6
ByLayer
 10
2520.0
 20
990.0
 30
0.0
 11
2560.0
 21
990.0
 31
0.0
  0
LINE
  5
11B
100
AcDbEntity
100
AcDbLine
  8
0
 62
256
370
-1
  6
ByLayer
 10
2560.0
 20
990.0
 30
0.0
 11
2560.0
 21
1030.0
 31
0.0
  0
LINE
  5
11C
100
AcDbEntity
100
AcDbLine
  8
0
 62
256
370
-1
  6
ByLayer
 10
2560.0
 20
1030.0
 30
0.0
 11
2520.0
 21
1030.0
 31
0.0
  0
LINE
  5
11D
100
AcDbEntity
100
AcDbLine
  8
0
 62
256
370
-1
  6
ByLayer
 10
2520.0
 20
1030.0
 30
0.0
 11
2520.0
 21
990.0
 31
0.0
  0
LINE
  5
11E
100
AcDbEntity
100
AcDbLine
  8
0
 62
256
370
-1
  6
ByLayer
 10
2510.0
 20
1040.0
 30
0.0
 11
2570.0
 21
1040.0
 31
0.0
  0
LINE
  5
11F
100
AcDbEntity
100
AcDbLine
  8
0
 62
256
370
-1
  6
ByLayer
 10
2570.0
 20
1040.0
 30
0.0
 11
2570.0
 21
930.0
 31
0.0
  0
LINE
  5
120
100
AcDbEntity
100
AcDbLine
  8
0
 62
256
370
-1
  6
ByLayer
 10
2570.0
 20
930.0
 30
0.0
 11
2510.0
 21
930.0
 31
0.0
  0
LINE
  5
121
100
AcDbEntity
100
AcDbLine
  8
0
 62
256
370
-1
  6
ByLayer
 10
2510.0
 20
930.0
 30
0.0
 11
2510.0
 21
1040.0
 31
0.0
  0
CIRCLE
  5
122
100
AcDbEntity
100
AcDbCircle
  8
0
 62
256
370
-1
  6
ByLayer
 10
2538.9883984930124825
 20
839.9744001760018364
 30
0.0
 40
20.0
  0
LINE
  5
123
100
AcDbEntity
100
AcDbLine
  8
0
 62
256
370
-1
  6
ByLayer
 10
2520.0
 20
870.0
 30
0.0
 11
2560.0
 21
870.0
 31
0.0
  0
LINE
  5
124
100
AcDbEntity
100
AcDbLine
  8
0
 62
256
370
-1
  6
ByLayer
 10
2560.0
 20
870.0
 30
0.0
 11
2560.0
 21
910.0
 31
0.0
  0
LINE
  5
125
100
AcDbEntity
100
AcDbLine
  8
0
 62
256
370
-1
  6
ByLayer
 10
2560.0
 20
910.0
 30
0.0
 11
2520.0
 21
910.0
 31
0.0
  0
LINE
  5
126
100
AcDbEntity
100
AcDbLine
  8
0
 62
256
370
-1
  6
ByLayer
 10
2520.0
 20
910.0
 30
0.0
 11
2520.0
 21
870.0
 31
0.0
  0
LINE
  5
127
100
AcDbEntity
100
AcDbLine
  8
0
 62
256
370
-1
  6
ByLayer
 10
2510.0
 20
920.0
 30
0.0
 11
2570.0
 21
920.0
 31
0.0
  0
LINE
  5
128
100
AcDbEntity
100
AcDbLine
  8
0
 62
256
370
-1
  6
ByLayer
 10
2570.0
 20
920.0
 30
0.0
 11
2570.0
 21
810.0
 31
0.0
  0
LINE
  5
129
100
AcDbEntity
100
AcDbLine
  8
0
 62
256
370
-1
  6
ByLayer
 10
2570.0
 20
810.0
 30
0.0
 11
2510.0
 21
810.0
 31
0.0
  0
LINE
  5
12A
100
AcDbEntity
100
AcDbLine
  8
0
 62
256
370
-1
  6
ByLayer
 10
2510.0
 20
810.0
 30
0.0
 11
2510.0
 21
920.0
 31
0.0
  0
CIRCLE
  5
12B
100
AcDbEntity
100
AcDbCircle
  8
0
 62
256
370
-1
  6
ByLayer
 10
2538.9883984930124825
 20
719.9744001760018364
 30
0.0
 40
20.0
  0
LINE
  5
12C
100
AcDbEntity
100
AcDbLine
  8
0
 62
256
370
-1
  6
ByLayer
 10
2520.0
 20
750.0
 30
0.0
 11
2560.0
 21
750.0
 31
0.0
  0
LINE
  5
12D
100
AcDbEntity
100
AcDbLine
  8
0
 62
256
370
-1
  6
ByLayer
 10
2560.0
 20
750.0
 30
0.0
 11
2560.0
 21
790.0
 31
0.0
  0
LINE
  5
12E
100
AcDbEntity
100
AcDbLine
  8
0
 62
256
370
-1
  6
ByLayer
 10
2560.0
 20
790.0
 30
0.0
 11
2520.0
 21
790.0
 31
0.0
  0
LINE
  5
12F
100
AcDbEntity
100
AcDbLine
  8
0
 62
256
370
-1
  6
ByLayer
 10
2520.0
 20
790.0
 30
0.0
 11
2520.0
 21
750.0
 31
0.0
  0
LINE
  5
130
100
AcDbEntity
100
AcDbLine
  8
0
 62
256
370
-1
  6
ByLayer
 10
2510.0
 20
800.0
 30
0.0
 11
2570.0
 21
800.0
 31
0.0
  0
LINE
  5
131
100
AcDbEntity
100
AcDbLine
  8
0
 62
256
370
-1
  6
ByLayer
 10
2570.0
 20
800.0
 30
0.0
 11
2570.0
 21
690.0
 31
0.0
  0
LINE
  5
132
100
AcDbEntity
100
AcDbLine
  8
0
 62
256
370
-1
  6
ByLayer
 10
2570.0
 20
690.0
 30
0.0
 11
2510.0
 21
690.0
 31
0.0
  0
LINE
  5
133
100
AcDbEntity
100
AcDbLine
  8
0
 62
256
370
-1
  6
ByLayer
 10
2510.0
 20
690.0
 30
0.0
 11
2510.0
 21
800.0
 31
0.0
  0
CIRCLE
  5
134
100
AcDbEntity
100
AcDbCircle
  8
0
 62
256
370
-1
  6
ByLayer
 10
2538.9883984930124825
 20
599.9744001760018364
 30
0.0
 40
20.0
  0
LINE
  5
135
100
AcDbEntity
100
AcDbLine
  8
0
 62
256
370
-1
  6
ByLayer
 10
2520.0
 20
630.0
 30
0.0
 11
2560.0
 21
630.0
 31
0.0
  0
LINE
  5
136
100
AcDbEntity
100
AcDbLine
  8
0
 62
256
370
-1
  6
ByLayer
 10
2560.0
 20
630.0
 30
0.0
 11
2560.0
 21
670.0
 31
0.0
  0
LINE
  5
137
100
AcDbEntity
100
AcDbLine
  8
0
 62
256
370
-1
  6
ByLayer
 10
2560.0
 20
670.0
 30
0.0
 11
2520.0
 21
670.0
 31
0.0
  0
LINE
  5
138
100
AcDbEntity
100
AcDbLine
  8
0
 62
256
370
-1
  6
ByLayer
 10
2520.0
 20
670.0
 30
0.0
 11
2520.0
 21
630.0
 31
0.0
  0
LINE
  5
139
100
AcDbEntity
100
AcDbLine
  8
0
 62
256
370
-1
  6
ByLayer
 10
2510.0
 20
680.0
 30
0.0
 11
2570.0
 21
680.0
 31
0.0
  0
LINE
  5
13A
100
AcDbEntity
100
AcDbLine
  8
0
 62
256
370
-1
  6
ByLayer
 10
2570.0
 20
680.0
 30
0.0
 11
2570.0
 21
570.0
 31
0.0
  0
LINE
  5
13B
100
AcDbEntity
100
AcDbLine
  8
0
 62
256
370
-1
  6
ByLayer
 10
2570.0
 20
570.0
 30
0.0
 11
2510.0
 21
570.0
 31
0.0
  0
LINE
  5
13C
100
AcDbEntity
100
AcDbLine
  8
0
 62
256
370
-1
  6
ByLayer
 10
2510.0
 20
570.0
 30
0.0
 11
2510.0
 21
680.0
 31
0.0
  0
CIRCLE
  5
13D
100
AcDbEntity
100
AcDbCircle
  8
0
 62
256
370
-1
  6
ByLayer
 10
2538.9883984930124825
 20
479.9744001760018364
 30
0.0
 40
20.0
  0
LINE
  5
13E
100
AcDbEntity
100
AcDbLine
  8
0
 62
256
370
-1
  6
ByLayer
 10
2520.0
 20
510.0
 30
0.0
 11
2560.0
 21
510.0
 31
0.0
  0
LINE
  5
13F
100
AcDbEntity
100
AcDbLine
  8
0
 62
256
370
-1
  6
ByLayer
 10
2560.0
 20
510.0
 30
0.0
 11
2560.0
 21
550.0
 31
0.0
  0
LINE
  5
140
100
AcDbEntity
100
AcDbLine
  8
0
 62
256
370
-1
  6
ByLayer
 10
2560.0
 20
550.0
 30
0.0
 11
2520.0
 21
550.0
 31
0.0
  0
LINE
  5
141
100
AcDbEntity
100
AcDbLine
  8
0
 62
256
370
-1
  6
ByLayer
 10
2520.0
 20
550.0
 30
0.0
 11
2520.0
 21
510.0
 31
0.0
  0
LINE
  5
142
100
AcDbEntity
100
AcDbLine
  8
0
 62
256
370
-1
  6
ByLayer
 10
2510.0
 20
560.0
 30
0.0
 11
2570.0
 21
560.0
 31
0.0
  0
LINE
  5
143
100
AcDbEntity
100
AcDbLine
  8
0
 62
256
370
-1
  6
ByLayer
 10
2570.0
 20
560.0
 30
0.0
 11
2570.0
 21
450.0
 31
0.0
  0
LINE
  5
144
100
AcDbEntity
100
AcDbLine
  8
0
 62
256
370
-1
  6
ByLayer
 10
2570.0
 20
450.0
 30
0.0
 11
2510.0
 21
450.0
 31
0.0
  0
LINE
  5
145
100
AcDbEntity
100
AcDbLine
  8
0
 62
256
370
-1
  6
ByLayer
 10
2510.0
 20
450.0
 30
0.0
 11
2510.0
 21
560.0
 31
0.0
  0
CIRCLE
  5
146
100
AcDbEntity
100
AcDbCircle
  8
0
 62
256
370
-1
  6
ByLayer
 10
2538.9883984930124825
 20
359.9744001760018364
 30
0.0
 40
20.0
  0
LINE
  5
147
100
AcDbEntity
100
AcDbLine
  8
0
 62
256
370
-1
  6
ByLayer
 10
2520.0
 20
390.0
 30
0.0
 11
2560.0
 21
390.0
 31
0.0
  0
LINE
  5
148
100
AcDbEntity
100
AcDbLine
  8
0
 62
256
370
-1
  6
ByLayer
 10
2560.0
 20
390.0
 30
0.0
 11
2560.0
 21
430.0
 31
0.0
  0
LINE
  5
149
100
AcDbEntity
100
AcDbLine
  8
0
 62
256
370
-1
  6
ByLayer
 10
2560.0
 20
430.0
 30
0.0
 11
2520.0
 21
430.0
 31
0.0
  0
LINE
  5
14A
100
AcDbEntity
100
AcDbLine
  8
0
 62
256
370
-1
  6
ByLayer
 10
2510.0
 20
440.0
 30
0.0
 11
2570.0
 21
440.0
 31
0.0
  0
LINE
  5
14B
100
AcDbEntity
100
AcDbLine
  8
0
 62
256
370
-1
  6
ByLayer
 10
2570.0
 20
440.0
 30
0.0
 11
2570.0
 21
330.0
 31
0.0
  0
LINE
  5
14C
100
AcDbEntity
100
AcDbLine
  8
0
 62
256
370
-1
  6
ByLayer
 10
2570.0
 20
330.0
 30
0.0
 11
2510.0
 21
330.0
 31
0.0
  0
LINE
  5
14D
100
AcDbEntity
100
AcDbLine
  8
0
 62
256
370
-1
  6
ByLayer
 10
2510.0
 20
330.0
 30
0.0
 11
2510.0
 21
440.0
 31
0.0
  0
LINE
  5
14E
100
AcDbEntity
100
AcDbLine
  8
0
 62
256
370
-1
  6
ByLayer
 10
2520.0
 20
390.0
 30
0.0
 11
2530.0
 21
390.0
 31
0.0
  0
LINE
  5
14F
100
AcDbEntity
100
AcDbLine
  8
0
 62
256
370
-1
  6
ByLayer
 10
2520.0
 20
390.0
 30
0.0
 11
2520.0
 21
430.0
 31
0.0
  0
CIRCLE
  5
150
100
AcDbEntity
100
AcDbCircle
  8
0
 62
256
370
-1
  6
ByLayer
 10
2520.0
 20
300.0
 30
0.0
 40
20.0
  0
CIRCLE
  5
151
100
AcDbEntity
100
AcDbCircle
  8
0
 62
256
370
-1
  6
ByLayer
 10
2520.0
 20
1570.0
 30
0.0
 40
20.0
  0
LINE
  5
152
100
AcDbEntity
100
AcDbLine
  8
0
 62
256
370
-1
  6
ByLayer
 10
2580.0
 20
230.0
 30
0.0
 11
2580.0
 21
170.0
 31
0.0
  0
LINE
  5
153
100
AcDbEntity
100
AcDbLine
  8
0
 62
256
370
-1
  6
ByLayer
 10
2580.0
 20
230.0
 30
0.0
 11
3000.0
 21
230.0
 31
0.0
  0
CIRCLE
  5
154
100
AcDbEntity
100
AcDbCircle
  8
0
 62
256
370
-1
  6
ByLayer
 10
1240.0
 20
1030.0
 30
0.0
 40
20.0
  0
CIRCLE
  5
155
100
AcDbEntity
100
AcDbCircle
  8
0
 62
256
370
-1
  6
ByLayer
 10
1200.0
 20
1070.0
 30
0.0
 40
19.0
  0
CIRCLE
  5
156
100
AcDbEntity
100
AcDbCircle
  8
0
 62
256
370
-1
  6
ByLayer
 10
1200.0
 20
1030.0
 30
0.0
 40
19.0
  0
CIRCLE
  5
157
100
AcDbEntity
100
AcDbCircle
  8
0
 62
256
370
-1
  6
ByLayer
 10
1200.0
 20
990.0
 30
0.0
 40
19.0
  0
CIRCLE
  5
158
100
AcDbEntity
100
AcDbCircle
  8
0
 62
256
370
-1
  6
ByLayer
 10
1200.0
 20
950.0
 30
0.0
 40
19.0
  0
CIRCLE
  5
159
100
AcDbEntity
100
AcDbCircle
  8
0
 62
256
370
-1
  6
ByLayer
 10
1200.0
 20
910.0
 30
0.0
 40
19.0
  0
CIRCLE
  5
15A
100
AcDbEntity
100
AcDbCircle
  8
0
 62
256
370
-1
  6
ByLayer
 10
1200.0
 20
870.0
 30
0.0
 40
19.0262975904404463
  0
CIRCLE
  5
15B
100
AcDbEntity
100
AcDbCircle
  8
0
 62
256
370
-1
  6
ByLayer
 10
1200.0
 20
830.0
 30
0.0
 40
19.0
  0
CIRCLE
  5
15C
100
AcDbEntity
100
AcDbCircle
  8
0
 62
256
370
-1
  6
ByLayer
 10
1200.0
 20
790.0
 30
0.0
 40
19.0
  0
CIRCLE
  5
15D
100
AcDbEntity
100
AcDbCircle
  8
0
 62
256
370
-1
  6
ByLayer
 10
1200.0
 20
750.0
 30
0.0
 40
19.0
  0
CIRCLE
  5
15E
100
AcDbEntity
100
AcDbCircle
  8
0
 62
256
370
-1
  6
ByLayer
 10
1240.0
 20
750.0
 30
0.0
 40
19.0
  0
CIRCLE
  5
15F
100
AcDbEntity
100
AcDbCircle
  8
0
 62
256
370
-1
  6
ByLayer
 10
1240.0
 20
790.0
 30
0.0
 40
19.0
  0
CIRCLE
  5
160
100
AcDbEntity
100
AcDbCircle
  8
0
 62
256
370
-1
  6
ByLayer
 10
1240.0
 20
830.0
 30
0.0
 40
19.0262975904404463
  0
CIRCLE
  5
161
100
AcDbEntity
100
AcDbCircle
  8
0
 62
256
370
-1
  6
ByLayer
 10
1240.0
 20
870.0
 30
0.0
 40
19.0
  0
CIRCLE
  5
162
100
AcDbEntity
100
AcDbCircle
  8
0
 62
256
370
-1
  6
ByLayer
 10
1240.0
 20
910.0
 30
0.0
 40
19.0262975904404463
  0
CIRCLE
  5
163
100
AcDbEntity
100
AcDbCircle
  8
0
 62
256
370
-1
  6
ByLayer
 10
1240.0
 20
950.0
 30
0.0
 40
19.0
  0
CIRCLE
  5
164
100
AcDbEntity
100
AcDbCircle
  8
0
 62
256
370
-1
  6
ByLayer
 10
1240.0
 20
990.0
 30
0.0
 40
19.0
  0
CIRCLE
  5
165
100
AcDbEntity
100
AcDbCircle
  8
0
 62
256
370
-1
  6
ByLayer
 10
1240.0
 20
1070.0
 30
0.0
 40
19.0
  0
LINE
  5
166
100
AcDbEntity
100
AcDbLine
  8
0
 62
256
370
-1
  6
ByLayer
 10
1170.0
 20
1100.0
 30
0.0
 11
1270.0
 21
1100.0
 31
0.0
  0
LINE
  5
167
100
AcDbEntity
100
AcDbLine
  8
0
 62
256
370
-1
  6
ByLayer
 10
1270.0
 20
1100.0
 30
0.0
 11
1270.0
 21
720.0
 31
0.0
  0
LINE
  5
168
100
AcDbEntity
100
AcDbLine
  8
0
 62
256
370
-1
  6
ByLayer
 10
1170.0
 20
1100.0
 30
0.0
 11
1170.0
 21
720.0
 31
0.0
  0
LINE
  5
169
100
AcDbEntity
100
AcDbLine
  8
0
 62
256
370
-1
  6
ByLayer
 10
1170.0
 20
720.0
 30
0.0
 11
1270.0
 21
720.0
 31
0.0
  0
LINE
  5
16A
100
AcDbEntity
100
AcDbLine
  8
0
 62
256
370
-1
  6
ByLayer
 10
1100.0
 20
1610.0
 30
0.0
 11
1256.0
 21
1609.9999999999986358
 31
0.0
  0
CIRCLE
  5
16B
100
AcDbEntity
100
AcDbCircle
  8
0
 62
256
370
-1
  6
ByLayer
 10
1230.0
 20
1570.0
 30
0.0
 40
20.0
  0
CIRCLE
  5
16C
100
AcDbEntity
100
AcDbCircle
  8
0
 62
256
370
-1
  6
ByLayer
 10
1190.0
 20
1570.0
 30
0.0
 40
19.0
  0
CIRCLE
  5
16D
100
AcDbEntity
100
AcDbCircle
  8
0
 62
256
370
-1
  6
ByLayer
 10
1190.0
 20
1530.0
 30
0.0
 40
19.0
  0
CIRCLE
  5
16E
100
AcDbEntity
100
AcDbCircle
  8
0
 62
256
370
-1
  6
ByLayer
 10
1190.0
 20
1490.0
 30
0.0
 40
19.0
  0
CIRCLE
  5
16F
100
AcDbEntity
100
AcDbCircle
  8
0
 62
256
370
-1
  6
ByLayer
 10
1190.0
 20
1450.0
 30
0.0
 40
19.0
  0
CIRCLE
  5
170
100
AcDbEntity
100
AcDbCircle
  8
0
 62
256
370
-1
  6
ByLayer
 10
1190.0
 20
1410.0
 30
0.0
 40
19.0262975904404463
  0
CIRCLE
  5
171
100
AcDbEntity
100
AcDbCircle
  8
0
 62
256
370
-1
  6
ByLayer
 10
1190.0
 20
1370.0
 30
0.0
 40
19.0
  0
CIRCLE
  5
172
100
AcDbEntity
100
AcDbCircle
  8
0
 62
256
370
-1
  6
ByLayer
 10
1190.0
 20
1330.0
 30
0.0
 40
19.0
  0
CIRCLE
  5
173
100
AcDbEntity
100
AcDbCircle
  8
0
 62
256
370
-1
  6
ByLayer
 10
1190.0
 20
1290.0
 30
0.0
 40
19.0
  0
CIRCLE
  5
174
100
AcDbEntity
100
AcDbCircle
  8
0
 62
256
370
-1
  6
ByLayer
 10
1230.0
 20
1290.0
 30
0.0
 40
19.0
  0
CIRCLE
  5
175
100
AcDbEntity
100
AcDbCircle
  8
0
 62
256
370
-1
  6
ByLayer
 10
1230.0
 20
1330.0
 30
0.0
 40
19.0
  0
CIRCLE
  5
176
100
AcDbEntity
100
AcDbCircle
  8
0
 62
256
370
-1
  6
ByLayer
 10
1230.0
 20
1370.0
 30
0.0
 40
19.0262975904404463
  0
CIRCLE
  5
177
100
AcDbEntity
100
AcDbCircle
  8
0
 62
256
370
-1
  6
ByLayer
 10
1230.0
 20
1410.0
 30
0.0
 40
19.0
  0
CIRCLE
  5
178
100
AcDbEntity
100
AcDbCircle
  8
0
 62
256
370
-1
  6
ByLayer
 10
1230.0
 20
1450.0
 30
0.0
 40
19.0262975904404463
  0
CIRCLE
  5
179
100
AcDbEntity
100
AcDbCircle
  8
0
 62
256
370
-1
  6
ByLayer
 10
1230.0
 20
1490.0
 30
0.0
 40
19.0
  0
CIRCLE
  5
17A
100
AcDbEntity
100
AcDbCircle
  8
0
 62
256
370
-1
  6
ByLayer
 10
1230.0
 20
1530.0
 30
0.0
 40
19.0
  0
CIRCLE
  5
17B
100
AcDbEntity
100
AcDbCircle
  8
0
 62
256
370
-1
  6
ByLayer
 10
1230.0
 20
1610.0
 30
0.0
 40
19.0
  0
LINE
  5
17C
100
AcDbEntity
100
AcDbLine
  8
0
 62
256
370
-1
  6
ByLayer
 10
1160.0
 20
1640.0
 30
0.0
 11
1260.0
 21
1640.0
 31
0.0
  0
LINE
  5
17D
100
AcDbEntity
100
AcDbLine
  8
0
 62
256
370
-1
  6
ByLayer
 10
1260.0
 20
1640.0
 30
0.0
 11
1260.0
 21
1260.0
 31
0.0
  0
LINE
  5
17E
100
AcDbEntity
100
AcDbLine
  8
0
 62
256
370
-1
  6
ByLayer
 10
1160.0
 20
1640.0
 30
0.0
 11
1160.0
 21
1260.0
 31
0.0
  0
LINE
  5
17F
100
AcDbEntity
100
AcDbLine
  8
0
 62
256
370
-1
  6
ByLayer
 10
1160.0
 20
1260.0
 30
0.0
 11
1260.0
 21
1260.0
 31
0.0
  0
CIRCLE
  5
180
100
AcDbEntity
100
AcDbCircle
  8
0
 62
256
370
-1
  6
ByLayer
 10
1340.0
 20
1610.0
 30
0.0
 40
20.0
  0
CIRCLE
  5
181
100
AcDbEntity
100
AcDbCircle
  8
0
 62
256
370
-1
  6
ByLayer
 10
1340.0
 20
1570.0000000000002274
 30
0.0
 40
19.0
  0
CIRCLE
  5
182
100
AcDbEntity
100
AcDbCircle
  8
0
 62
256
370
-1
  6
ByLayer
 10
1380.0
 20
1570.0
 30
0.0
 40
19.0
  0
CIRCLE
  5
183
100
AcDbEntity
100
AcDbCircle
  8
0
 62
256
370
-1
  6
ByLayer
 10
1420.0
 20
1570.0
 30
0.0
 40
19.0
  0
CIRCLE
  5
184
100
AcDbEntity
100
AcDbCircle
  8
0
 62
256
370
-1
  6
ByLayer
 10
1460.0
 20
1570.0
 30
0.0
 40
19.0
  0
CIRCLE
  5
185
100
AcDbEntity
100
AcDbCircle
  8
0
 62
256
370
-1
  6
ByLayer
 10
1500.0
 20
1570.0
 30
0.0
 40
19.0262975904404463
  0
CIRCLE
  5
186
100
AcDbEntity
100
AcDbCircle
  8
0
 62
256
370
-1
  6
ByLayer
 10
1540.0
 20
1570.0
 30
0.0
 40
19.0
  0
CIRCLE
  5
187
100
AcDbEntity
100
AcDbCircle
  8
0
 62
256
370
-1
  6
ByLayer
 10
1580.0
 20
1570.0
 30
0.0
 40
19.0
  0
CIRCLE
  5
188
100
AcDbEntity
100
AcDbCircle
  8
0
 62
256
370
-1
  6
ByLayer
 10
1620.0
 20
1570.0
 30
0.0
 40
19.0
  0
CIRCLE
  5
189
100
AcDbEntity
100
AcDbCircle
  8
0
 62
256
370
-1
  6
ByLayer
 10
1620.0
 20
1610.0
 30
0.0
 40
19.0
  0
CIRCLE
  5
18A
100
AcDbEntity
100
AcDbCircle
  8
0
 62
256
370
-1
  6
ByLayer
 10
1580.0
 20
1610.0
 30
0.0
 40
19.0
  0
CIRCLE
  5
18B
100
AcDbEntity
100
AcDbCircle
  8
0
 62
256
370
-1
  6
ByLayer
 10
1540.0
 20
1610.0
 30
0.0
 40
19.0262975904404463
  0
CIRCLE
  5
18C
100
AcDbEntity
100
AcDbCircle
  8
0
 62
256
370
-1
  6
ByLayer
 10
1500.0
 20
1610.0
 30
0.0
 40
19.0
  0
CIRCLE
  5
18D
100
AcDbEntity
100
AcDbCircle
  8
0
 62
256
370
-1
  6
ByLayer
 10
1460.0
 20
1610.0
 30
0.0
 40
19.0262975904404463
  0
CIRCLE
  5
18E
100
AcDbEntity
100
AcDbCircle
  8
0
 62
256
370
-1
  6
ByLayer
 10
1420.0
 20
1610.0000000000002274
 30
0.0
 40
19.0
  0
CIRCLE
  5
18F
100
AcDbEntity
100
AcDbCircle
  8
0
 62
256
370
-1
  6
ByLayer
 10
1380.0
 20
1610.0000000000002274
 30
0.0
 40
19.0
  0
CIRCLE
  5
190
100
AcDbEntity
100
AcDbCircle
  8
0
 62
256
370
-1
  6
ByLayer
 10
1300.0
 20
1610.0000000000002274
 30
0.0
 40
19.0
  0
LINE
  5
191
100
AcDbEntity
100
AcDbLine
  8
0
 62
256
370
-1
  6
ByLayer
 10
1270.0
 20
1540.0
 30
0.0
 11
1270.0
 21
1640.0
 31
0.0
  0
LINE
  5
192
100
AcDbEntity
100
AcDbLine
  8
0
 62
256
370
-1
  6
ByLayer
 10
1270.0
 20
1640.0
 30
0.0
 11
1650.0
 21
1640.0
 31
0.0
  0
LINE
  5
193
100
AcDbEntity
100
AcDbLine
  8
0
 62
256
370
-1
  6
ByLayer
 10
1270.0
 20
1540.0
 30
0.0
 11
1650.0
 21
1540.0
 31
0.0
  0
CIRCLE
  5
194
100
AcDbEntity
100
AcDbCircle
  8
0
 62
256
370
-1
  6
ByLayer
 10
1700.0
 20
1610.0
 30
0.0
 40
20.0
  0
CIRCLE
  5
195
100
AcDbEntity
100
AcDbCircle
  8
0
 62
256
370
-1
  6
ByLayer
 10
1660.0
 20
1570.0
 30
0.0
 40
19.0
  0
CIRCLE
  5
196
100
AcDbEntity
100
AcDbCircle
  8
0
 62
256
370
-1
  6
ByLayer
 10
1700.0
 20
1570.0
 30
0.0
 40
19.0
  0
CIRCLE
  5
197
100
AcDbEntity
100
AcDbCircle
  8
0
 62
256
370
-1
  6
ByLayer
 10
1740.0
 20
1570.0
 30
0.0
 40
19.0
  0
CIRCLE
  5
198
100
AcDbEntity
100
AcDbCircle
  8
0
 62
256
370
-1
  6
ByLayer
 10
1780.0
 20
1570.0
 30
0.0
 40
19.0
  0
CIRCLE
  5
199
100
AcDbEntity
100
AcDbCircle
  8
0
 62
256
370
-1
  6
ByLayer
 10
1820.0
 20
1570.0
 30
0.0
 40
19.0
  0
CIRCLE
  5
19A
100
AcDbEntity
100
AcDbCircle
  8
0
 62
256
370
-1
  6
ByLayer
 10
1860.0
 20
1570.0
 30
0.0
 40
19.0262975904404463
  0
CIRCLE
  5
19B
100
AcDbEntity
100
AcDbCircle
  8
0
 62
256
370
-1
  6
ByLayer
 10
1900.0
 20
1570.0
 30
0.0
 40
19.0
  0
CIRCLE
  5
19C
100
AcDbEntity
100
AcDbCircle
  8
0
 62
256
370
-1
  6
ByLayer
 10
1940.0
 20
1570.0
 30
0.0
 40
19.0
  0
CIRCLE
  5
19D
100
AcDbEntity
100
AcDbCircle
  8
0
 62
256
370
-1
  6
ByLayer
 10
1940.0
 20
1610.0
 30
0.0
 40
19.0
  0
CIRCLE
  5
19E
100
AcDbEntity
100
AcDbCircle
  8
0
 62
256
370
-1
  6
ByLayer
 10
1900.0
 20
1610.0
 30
0.0
 40
19.0262975904404463
  0
CIRCLE
  5
19F
100
AcDbEntity
100
AcDbCircle
  8
0
 62
256
370
-1
  6
ByLayer
 10
1860.0
 20
1610.0
 30
0.0
 40
19.0
  0
CIRCLE
  5
1A0
100
AcDbEntity
100
AcDbCircle
  8
0
 62
256
370
-1
  6
ByLayer
 10
1820.0
 20
1610.0
 30
0.0
 40
19.0262975904404463
  0
CIRCLE
  5
1A1
100
AcDbEntity
100
AcDbCircle
  8
0
 62
256
370
-1
  6
ByLayer
 10
1780.0
 20
1610.0
 30
0.0
 40
19.0
  0
CIRCLE
  5
1A2
100
AcDbEntity
100
AcDbCircle
  8
0
 62
256
370
-1
  6
ByLayer
 10
1740.0
 20
1610.0
 30
0.0
 40
19.0
  0
CIRCLE
  5
1A3
100
AcDbEntity
100
AcDbCircle
  8
0
 62
256
370
-1
  6
ByLayer
 10
1660.0
 20
1610.0
 30
0.0
 40
19.0
  0
LINE
  5
1A4
100
AcDbEntity
100
AcDbLine
  8
0
 62
256
370
-1
  6
ByLayer
 10
1970.0
 20
1540.0
 30
0.0
 11
1970.0
 21
1640.0
 31
0.0
  0
LINE
  5
1A5
100
AcDbEntity
100
AcDbLine
  8
0
 62
256
370
-1
  6
ByLayer
 10
1630.0
 20
1540.0
 30
0.0
 11
1970.0
 21
1540.0
 31
0.0
  0
LINE
  5
1A6
100
AcDbEntity
100
AcDbLine
  8
0
 62
256
370
-1
  6
ByLayer
 10
1630.0
 20
1640.0
 30
0.0
 11
1970.0
 21
1640.0
 31
0.0
  0
CIRCLE
  5
1A7
100
AcDbEntity
100
AcDbCircle
  8
0
 62
256
370
-1
  6
ByLayer
 10
2060.0
 20
1610.0
 30
0.0
 40
30.0
  0
LINE
  5
1A8
100
AcDbEntity
100
AcDbLine
  8
0
 62
256
370
-1
  6
ByLayer
 10
2060.0
 20
1840.0
 30
0.0
 11
2060.0
 21
1600.0
 31
0.0
  0
CIRCLE
  5
1A9
100
AcDbEntity
100
AcDbCircle
  8
0
 62
256
370
-1
  6
ByLayer
 10
2060.0
 20
270.0
 30
0.0
 40
30.0
  0
LINE
  5
1AA
100
AcDbEntity
100
AcDbLine
  8
0
 62
256
370
-1
  6
ByLayer
 10
390.0
 20
1650.0
 30
0.0
 11
20.0
 21
1650.0
 31
0.0
  0
LINE
  5
1AB
100
AcDbEntity
100
AcDbLine
  8
0
 62
256
370
-1
  6
ByLayer
 10
350.0
 20
1590.0
 30
0.0
 11
350.0
 21
1780.0
 31
0.0
  0
LINE
  5
1AC
100
AcDbEntity
100
AcDbLine
  8
0
 62
256
370
-1
  6
ByLayer
 10
390.0
 20
1680.0
 30
0.0
 11
590.0
 21
1680.0
 31
0.0
  0
LINE
  5
1AD
100
AcDbEntity
100
AcDbLine
  8
0
 62
256
370
-1
  6
ByLayer
 10
536.0
 20
1424.0
 30
0.0
 11
564.0
 21
1424.0
 31
0.0
  0
LINE
  5
1AE
100
AcDbEntity
100
AcDbLine
  8
0
 62
256
370
-1
  6
ByLayer
 10
564.0
 20
1424.0
 30
0.0
 11
564.0
 21
1396.0
 31
0.0
  0
LINE
  5
1AF
100
AcDbEntity
100
AcDbLine
  8
0
 62
256
370
-1
  6
ByLayer
 10
564.0
 20
1396.0
 30
0.0
 11
536.0
 21
1396.0
 31
0.0
  0
LINE
  5
1B0
100
AcDbEntity
100
AcDbLine
  8
0
 62
256
370
-1
  6
ByLayer
 10
536.0
 20
1396.0
 30
0.0
 11
536.0
 21
1424.0
 31
0.0
  0
MTEXT
  5
1B1
100
AcDbEntity
100
AcDbMText
  8
0
 62
256
370
-1
  6
ByLayer
 10
441.1116666666665083
 20
1383.8888888888889142
 30
0.0
 40
50.0
 41
100.0
 71
5
 72
2
  1
6
  7
normallatin1
 50
0.0
 73
0
 44
1.0
  0
MTEXT
  5
1B2
100
AcDbEntity
100
AcDbMText
  8
0
 62
256
370
-1
  6
ByLayer
 10
439.5580555555556543
 20
1282.7777777777778283
 30
0.0
 40
50.0
 41
100.0
 71
5
 72
2
  1
9
  7
normallatin1
 50
0.0
 73
0
 44
1.0
  0
MTEXT
  5
1B3
100
AcDbEntity
100
AcDbMText
  8
0
 62
256
370
-1
  6
ByLayer
 10
501.1119444444443047
 20
1205.0000055555560721
 30
0.0
 40
50.0
 41
100.0
 71
5
 72
2
  1
5
  7
normallatin1
 50
0.0
 73
0
 44
1.0
  0
MTEXT
  5
1B4
100
AcDbEntity
100
AcDbMText
  8
0
 62
256
370
-1
  6
ByLayer
 10
504.0
 20
1456.0
 30
0.0
 40
50.0
 41
100.0
 71
5
 72
2
  1
1
  7
normallatin1
 50
0.0
 73
0
 44
1.0
  0
MTEXT
  5
1B5
100
AcDbEntity
100
AcDbMText
  8
0
 62
256
370
-1
  6
ByLayer
 10
443.3330555555555748
 20
1515.0000055555560721
 30
0.0
 40
50.0
 41
100.0
 71
5
 72
2
  1
P2
  7
normallatin1
 50
0.0
 73
0
 44
1.0
  0
LINE
  5
1B6
100
AcDbEntity
100
AcDbLine
  8
0
 62
256
370
-1
  6
ByLayer
 10
536.0
 20
804.0
 30
0.0
 11
564.0
 21
804.0
 31
0.0
  0
LINE
  5
1B7
100
AcDbEntity
100
AcDbLine
  8
0
 62
256
370
-1
  6
ByLayer
 10
564.0
 20
804.0
 30
0.0
 11
564.0
 21
776.0
 31
0.0
  0
LINE
  5
1B8
100
AcDbEntity
100
AcDbLine
  8
0
 62
256
370
-1
  6
ByLayer
 10
564.0
 20
776.0
 30
0.0
 11
536.0
 21
776.0
 31
0.0
  0
LINE
  5
1B9
100
AcDbEntity
100
AcDbLine
  8
0
 62
256
370
-1
  6
ByLayer
 10
536.0
 20
776.0
 30
0.0
 11
536.0
 21
804.0
 31
0.0
  0
MTEXT
  5
1BA
100
AcDbEntity
100
AcDbMText
  8
0
 62
256
370
-1
  6
ByLayer
 10
514.4449999999998226
 20
775.0000055555246945
 30
0.0
 40
50.0
 41
100.0
 71
5
 72
2
  1
1
  7
normallatin1
 50
0.0
 73
0
 44
1.0
  0
MTEXT
  5
1BB
100
AcDbEntity
100
AcDbMText
  8
0
 62
256
370
-1
  6
ByLayer
 10
521.1119444444443616
 20
995.0000055555560721
 30
0.0
 40
50.0
 41
100.0
 71
5
 72
2
  1
5
  7
normallatin1
 50
0.0
 73
0
 44
1.0
  0
MTEXT
  5
1BC
100
AcDbEntity
100
AcDbMText
  8
0
 62
256
370
-1
  6
ByLayer
 10
441.1116666666665083
 20
1053.8888888888889142
 30
0.0
 40
50.0
 41
100.0
 71
5
 72
2
  1
P1
  7
normallatin1
 50
0.0
 73
0
 44
1.0
  0
MTEXT
  5
1BD
100
AcDbEntity
100
AcDbMText
  8
0
 62
256
370
-1
  6
ByLayer
 10
343.3330555555555748
 20
1345.0000055555560721
 30
0.0
 40
50.0
 41
100.0
 71
5
 72
2
  1
MALE
  7
normallatin1
 50
90.0
 73
0
 44
1.0
  0
MTEXT
  5
1BE
100
AcDbEntity
100
AcDbMText
  8
0
 62
256
370
-1
  6
ByLayer
 10
423.3330555555555748
 20
815.0000055555560721
 30
0.0
 40
50.0
 41
100.0
 71
5
 72
2
  1
FEMALE
  7
normallatin1
 50
90.0
 73
0
 44
1.0
  0
MTEXT
  5
1BF
100
AcDbEntity
100
AcDbMText
  8
0
 62
256
370
-1
  6
ByLayer
 10
465.556388888888705
 20
915.0000134594813517
 30
0.0
 40
50.0
 41
100.0
 71
5
 72
2
  1
9
  7
normallatin1
 50
0.0
 73
0
 44
1.0
  0
MTEXT
  5
1C0
100
AcDbEntity
100
AcDbMText
  8
0
 62
256
370
-1
  6
ByLayer
 10
481.1116666666665083
 20
753.8888888888889142
 30
0.0
 40
50.0
 41
100.0
 71
5
 72
2
  1
6
  7
normallatin1
 50
0.0
 73
0
 44
1.0
  0
MTEXT
  5
1C1
100
AcDbEntity
100
AcDbMText
  8
0
 62
256
370
-1
  6
ByLayer
 10
431.1116666666665083
 20
433.8888888888889142
 30
0.0
 40
50.0
 41
100.0
 71
5
 72
2
  1
J1
  7
normallatin1
 50
0.0
 73
0
 44
1.0
  0
MTEXT
  5
1C2
100
AcDbEntity
100
AcDbMText
  8
0
 62
256
370
-1
  6
ByLayer
 10
591.1116666666664514
 20
603.8888888888889142
 30
0.0
 40
50.0
 41
100.0
 71
5
 72
2
  1
D1
  7
normallatin1
 50
0.0
 73
0
 44
1.0
  0
LINE
  5
1C3
100
AcDbEntity
100
AcDbLine
  8
0
 62
256
370
-1
  6
ByLayer
 10
370.0
 20
290.0
 30
0.0
 11
370.0
 21
120.0
 31
0.0
  0
MTEXT
  5
1C4
100
AcDbEntity
100
AcDbMText
  8
0
 62
256
370
-1
  6
ByLayer
 10
329.9999977777777644
 20
170.0002233333333379
 30
0.0
 40
50.0
 41
100.0
 71
5
 72
2
  1
150
  7
normallatin1
 50
90.0
 73
0
 44
1.0
  0
MTEXT
  5
1C5
100
AcDbEntity
100
AcDbMText
  8
0
 62
256
370
-1
  6
ByLayer
 10
299.9999977777777644
 20
340.0002233333333379
 30
0.0
 40
50.0
 41
100.0
 71
5
 72
2
  1
733
  7
normallatin1
 50
90.0
 73
0
 44
1.0
  0
LINE
  5
1C6
100
AcDbEntity
100
AcDbLine
  8
0
 62
256
370
-1
  6
ByLayer
 10
300.0
 20
230.0
 30
0.0
 11
300.0
 21
270.0
 31
0.0
  0
LINE
  5
1C7
100
AcDbEntity
100
AcDbLine
  8
0
 62
256
370
-1
  6
ByLayer
 10
300.0
 20
480.0
 30
0.0
 11
300.0
 21
410.0
 31
0.0
  0
MTEXT
  5
1C8
100
AcDbEntity
100
AcDbMText
  8
0
 62
256
370
-1
  6
ByLayer
 10
249.9999977777777644
 20
460.0002233333333379
 30
0.0
 40
50.0
 41
100.0
 71
5
 72
2
  1
1075
  7
normallatin1
 50
90.0
 73
0
 44
1.0
  0
LINE
  5
1C9
100
AcDbEntity
100
AcDbLine
  8
0
 62
256
370
-1
  6
ByLayer
 10
240.0000000000000568
 20
381.0000000000001137
 30
0.0
 11
240.0
 21
230.0
 31
0.0
  0
LINE
  5
1CA
100
AcDbEntity
100
AcDbLine
  8
0
 62
256
370
-1
  6
ByLayer
 10
550.0
 20
1610.0
 30
0.0
 11
80.0
 21
1610.0
 31
0.0
  0
LINE
  5
1CB
100
AcDbEntity
100
AcDbLine
  8
0
 62
256
370
-1
  6
ByLayer
 10
240.0
 20
640.0
 30
0.0
 11
240.0
 21
540.0
 31
0.0
  0
LINE
  5
1CC
100
AcDbEntity
100
AcDbLine
  8
0
 62
256
370
-1
  6
ByLayer
 10
180.0
 20
960.0
 30
0.0
 11
569.0
 21
959.9999999999997726
 31
0.0
  0
LINE
  5
1CD
100
AcDbEntity
100
AcDbLine
  8
0
 62
256
370
-1
  6
ByLayer
 10
220.0
 20
640.0
 30
0.0
 11
490.0
 21
640.0
 31
0.0
  0
LINE
  5
1CE
100
AcDbEntity
100
AcDbLine
  8
0
 62
256
370
-1
  6
ByLayer
 10
200.0
 20
640.0
 30
0.0
 11
200.0
 21
230.0
 31
0.0
  0
LINE
  5
1CF
100
AcDbEntity
100
AcDbLine
  8
0
 62
256
370
-1
  6
ByLayer
 10
200.0
 20
960.0
 30
0.0
 11
200.0
 21
830.0
 31
0.0
  0
MTEXT
  5
1D0
100
AcDbEntity
100
AcDbMText
  8
0
 62
256
370
-1
  6
ByLayer
 10
198.3030711477423722
 20
739.4191222100154164
 30
0.0
 40
50.0
 41
100.0
 71
5
 72
2
  1
2036
  7
normallatin1
 50
90.0
 73
0
 44
1.0
  0
LINE
  5
1D1
100
AcDbEntity
100
AcDbLine
  8
0
 62
256
370
-1
  6
ByLayer
 10
160.0
 20
1240.0
 30
0.0
 11
160.0
 21
1170.0
 31
0.0
  0
MTEXT
  5
1D2
100
AcDbEntity
100
AcDbMText
  8
0
 62
256
370
-1
  6
ByLayer
 10
159.9999977777778213
 20
1070.0002233333334516
 30
0.0
 40
50.0
 41
100.0
 71
5
 72
2
  1
2867
  7
normallatin1
 50
90.0
 73
0
 44
1.0
  0
LINE
  5
1D3
100
AcDbEntity
100
AcDbLine
  8
0
 62
256
370
-1
  6
ByLayer
 10
160.0
 20
980.0
 30
0.0
 11
160.0
 21
230.0
 31
0.0
  0
LINE
  5
1D4
100
AcDbEntity
100
AcDbLine
  8
0
 62
256
370
-1
  6
ByLayer
 10
140.0
 20
1240.0
 30
0.0
 11
570.0
 21
1240.0
 31
0.0
  0
MTEXT
  5
1D5
100
AcDbEntity
100
AcDbMText
  8
0
 62
256
370
-1
  6
ByLayer
 10
98.2529612576319948
 20
1395.9589024297974902
 30
0.0
 40
50.0
 41
100.0
 71
5
 72
2
  1
3850
  7
normallatin1
 50
90.0
 73
0
 44
1.0
  0
LINE
  5
1D6
100
AcDbEntity
100
AcDbLine
  8
0
 62
256
370
-1
  6
ByLayer
 10
100.0
 20
1300.0
 30
0.0
 11
100.0
 21
230.0
 31
0.0
  0
LINE
  5
1D7
100
AcDbEntity
100
AcDbLine
  8
0
 62
256
370
-1
  6
ByLayer
 10
100.0
 20
1610.0
 30
0.0
 11
100.0
 21
1490.0
 31
0.0
  0
MTEXT
  5
1D8
100
AcDbEntity
100
AcDbMText
  8
0
 62
256
370
-1
  6
ByLayer
 10
33.6604337851037272
 20
1093.3470342979298948
 30
0.0
 40
50.0
 41
100.0
 71
5
 72
2
  1
4817
  7
normallatin1
 50
90.0
 73
0
 44
1.0
  0
LINE
  5
1D9
100
AcDbEntity
100
AcDbLine
  8
0
 62
256
370
-1
  6
ByLayer
 10
40.0
 20
1190.0
 30
0.0
 11
40.0
 21
1650.0
 31
0.0
  0
MTEXT
  5
1DA
100
AcDbEntity
100
AcDbMText
  8
0
 62
256
370
-1
  6
ByLayer
 10
2205.0239679296792019
 20
1819.6365672087986241
 30
0.0
 40
50.0
 41
100.0
 71
5
 72
2
  1
1758
  7
normallatin1
 50
0.0
 73
0
 44
1.0
  0
MTEXT
  5
1DB
100
AcDbEntity
100
AcDbMText
  8
0
 62
256
370
-1
  6
ByLayer
 10
560.00033499999995
 20
1715.0000033333337797
 30
0.0
 40
50.0
 41
100.0
 71
5
 72
2
  1
300
  7
normallatin1
 50
0.0
 73
0
 44
1.0
  0
LINE
  5
1DC
100
AcDbEntity
100
AcDbLine
  8
0
 62
256
370
-1
  6
ByLayer
 10
390.0000000000000568
 20
1759.8565310492506342
 30
0.0
 11
628.0
 21
1759.8565310492504068
 31
0.0
  0
MTEXT
  5
1DD
100
AcDbEntity
100
AcDbMText
  8
0
 62
256
370
-1
  6
ByLayer
 10
702.433120773626797
 20
1763.7962180923088908
 30
0.0
 40
50.0
 41
100.0
 71
5
 72
2
  1
983
  7
normallatin1
 50
0.0
 73
0
 44
1.0
  0
LINE
  5
1DE
100
AcDbEntity
100
AcDbLine
  8
0
 62
256
370
-1
  6
ByLayer
 10
1110.0
 20
1810.0
 30
0.0
 11
1190.0
 21
1810.0
 31
0.0
  0
MTEXT
  5
1DF
100
AcDbEntity
100
AcDbMText
  8
0
 62
256
370
-1
  6
ByLayer
 10
1026.2721898338468236
 20
1810.4719079243973283
 30
0.0
 40
50.0
 41
100.0
 71
5
 72
2
  1
2183
  7
normallatin1
 50
0.0
 73
0
 44
1.0
  0
LINE
  5
1E0
100
AcDbEntity
100
AcDbLine
  8
0
 62
256
370
-1
  6
ByLayer
 10
389.9999999999997726
 20
1809.8565310492508615
 30
0.0
 11
940.0
 21
1810.0
 31
0.0
  0
LINE
  5
1E1
100
AcDbEntity
100
AcDbLine
  8
0
 62
256
370
-1
  6
ByLayer
 10
389.9999999999995453
 20
1899.8565310492508615
 30
0.0
 11
1297.9999999999997726
 21
1899.8565310492506342
 31
0.0
  0
LINE
  5
1E2
100
AcDbEntity
100
AcDbLine
  8
0
 62
256
370
-1
  6
ByLayer
 10
389.9999999999996589
 20
1859.8565310492508615
 30
0.0
 11
675.9999999999997726
 21
1859.8565310492508615
 31
0.0
  0
LINE
  5
1E3
100
AcDbEntity
100
AcDbLine
  8
0
 62
256
370
-1
  6
ByLayer
 10
860.0
 20
1860.0
 30
0.0
 11
1300.0
 21
1860.0
 31
0.0
  0
MTEXT
  5
1E4
100
AcDbEntity
100
AcDbMText
  8
0
 62
256
370
-1
  6
ByLayer
 10
1393.3867562760456167
 20
1899.8742308571452213
 30
0.0
 40
50.0
 41
100.0
 71
5
 72
2
  1
5883
  7
normallatin1
 50
0.0
 73
0
 44
1.0
  0
LINE
  5
1E5
100
AcDbEntity
100
AcDbLine
  8
0
 62
256
370
-1
  6
ByLayer
 10
390.0000000000001705
 20
1959.8565310492504068
 30
0.0
 11
1550.0
 21
1960.0
 31
0.0
  0
MTEXT
  5
1E6
100
AcDbEntity
100
AcDbMText
  8
0
 62
256
370
-1
  6
ByLayer
 10
1639.9865638259382195
 20
1960.6483966874779981
 30
0.0
 40
50.0
 41
100.0
 71
5
 72
2
  1
6125
  7
normallatin1
 50
0.0
 73
0
 44
1.0
  0
LINE
  5
1E7
100
AcDbEntity
100
AcDbLine
  8
0
 62
256
370
-1
  6
ByLayer
 10
1730.0
 20
1960.0
 30
0.0
 11
2580.0
 21
1960.0
 31
0.0
  0
LINE
  5
1E8
100
AcDbEntity
100
AcDbLine
  8
0
 62
256
370
-1
  6
ByLayer
 10
2580.0
 20
1650.0
 30
0.0
 11
2580.0
 21
1980.0
 31
0.0
  0
LINE
  5
1E9
100
AcDbEntity
100
AcDbLine
  8
0
 62
256
370
-1
  6
ByLayer
 10
2290.0
 20
1820.0
 30
0.0
 11
2580.0
 21
1820.0
 31
0.0
  0
LINE
  5
1EA
100
AcDbEntity
100
AcDbLine
  8
0
 62
256
370
-1
  6
ByLayer
 10
2060.0
 20
1820.0
 30
0.0
 11
2124.0
 21
1819.9999999999997726
 31
0.0
  0
LINE
  5
1EB
100
AcDbEntity
100
AcDbLine
  8
0
 62
256
370
-1
  6
ByLayer
 10
390.0
 20
140.0
 30
0.0
 11
500.0
 21
140.0
 31
0.0
  0
LINE
  5
1EC
100
AcDbEntity
100
AcDbLine
  8
0
 62
256
370
-1
  6
ByLayer
 10
500.0
 20
283.0
 30
0.0
 11
500.0
 21
120.0
 31
0.0
  0
LINE
  5
1ED
100
AcDbEntity
100
AcDbLine
  8
0
 62
256
370
-1
  6
ByLayer
 10
390.0
 20
30.0
 30
0.0
 11
550.0
 21
30.0
 31
0.0
  0
LINE
  5
1EE
100
AcDbEntity
100
AcDbLine
  8
0
 62
256
370
-1
  6
ByLayer
 10
550.0
 20
980.0
 30
0.0
 11
550.0
 21
10.0
 31
0.0
  0
LINE
  5
1EF
100
AcDbEntity
100
AcDbLine
  8
0
 62
256
370
-1
  6
ByLayer
 10
560.0000000000002274
 20
509.4706475711567464
 30
0.0
 11
560.0
 21
-80.0
 31
0.0
  0
LINE
  5
1F0
100
AcDbEntity
100
AcDbLine
  8
0
 62
256
370
-1
  6
ByLayer
 10
390.0
 20
-60.0
 30
0.0
 11
560.0
 21
-60.0
 31
0.0
  0
LINE
  5
1F1
100
AcDbEntity
100
AcDbLine
  8
0
 62
256
370
-1
  6
ByLayer
 10
390.0
 20
-130.0
 30
0.0
 11
470.0
 21
-130.0
 31
0.0
  0
LINE
  5
1F2
100
AcDbEntity
100
AcDbLine
  8
0
 62
256
370
-1
  6
ByLayer
 10
600.0
 20
-130.0
 30
0.0
 11
670.0
 21
-130.0
 31
0.0
  0
LINE
  5
1F3
100
AcDbEntity
100
AcDbLine
  8
0
 62
256
370
-1
  6
ByLayer
 10
670.0
 20
230.0
 30
0.0
 11
670.0
 21
-150.0
 31
0.0
  0
LINE
  5
1F4
100
AcDbEntity
100
AcDbLine
  8
0
 62
256
370
-1
  6
ByLayer
 10
390.0
 20
230.0
 30
0.0
 11
390.0
 21
-190.0
 31
0.0
  0
LINE
  5
1F5
100
AcDbEntity
100
AcDbLine
  8
0
 62
256
370
-1
  6
ByLayer
 10
390.0
 20
-170.0
 30
0.0
 11
1340.0
 21
-170.0
 31
0.0
  0
LINE
  5
1F6
100
AcDbEntity
100
AcDbLine
  8
0
 62
256
370
-1
  6
ByLayer
 10
2650.0
 20
270.0
 30
0.0
 11
2650.0
 21
20.0
 31
0.0
  0
LINE
  5
1F7
100
AcDbEntity
100
AcDbLine
  8
0
 62
256
370
-1
  6
ByLayer
 10
2451.0
 20
1579.0
 30
0.0
 11
2489.0
 21
1579.0
 31
0.0
  0
LINE
  5
1F8
100
AcDbEntity
100
AcDbLine
  8
0
 62
256
370
-1
  6
ByLayer
 10
2489.0
 20
1579.0
 30
0.0
 11
2489.0
 21
1541.0
 31
0.0
  0
LINE
  5
1F9
100
AcDbEntity
100
AcDbLine
  8
0
 62
256
370
-1
  6
ByLayer
 10
2489.0
 20
1541.0
 30
0.0
 11
2451.0
 21
1541.0
 31
0.0
  0
LINE
  5
1FA
100
AcDbEntity
100
AcDbLine
  8
0
 62
256
370
-1
  6
ByLayer
 10
2451.0
 20
1541.0
 30
0.0
 11
2451.0
 21
1579.0
 31
0.0
  0
LINE
  5
1FB
100
AcDbEntity
100
AcDbLine
  8
0
 62
256
370
-1
  6
ByLayer
 10
2411.0
 20
1579.0
 30
0.0
 11
2449.0
 21
1579.0
 31
0.0
  0
LINE
  5
1FC
100
AcDbEntity
100
AcDbLine
  8
0
 62
256
370
-1
  6
ByLayer
 10
2449.0
 20
1579.0
 30
0.0
 11
2449.0
 21
1541.0
 31
0.0
  0
LINE
  5
1FD
100
AcDbEntity
100
AcDbLine
  8
0
 62
256
370
-1
  6
ByLayer
 10
2449.0
 20
1541.0
 30
0.0
 11
2411.0
 21
1541.0
 31
0.0
  0
LINE
  5
1FE
100
AcDbEntity
100
AcDbLine
  8
0
 62
256
370
-1
  6
ByLayer
 10
2411.0
 20
1541.0
 30
0.0
 11
2411.0
 21
1579.0
 31
0.0
  0
LINE
  5
1FF
100
AcDbEntity
100
AcDbLine
  8
0
 62
256
370
-1
  6
ByLayer
 10
2371.0
 20
1579.0
 30
0.0
 11
2409.0
 21
1579.0
 31
0.0
  0
LINE
  5
200
100
AcDbEntity
100
AcDbLine
  8
0
 62
256
370
-1
  6
ByLayer
 10
2409.0
 20
1579.0
 30
0.0
 11
2409.0
 21
1541.0
 31
0.0
  0
LINE
  5
201
100
AcDbEntity
100
AcDbLine
  8
0
 62
256
370
-1
  6
ByLayer
 10
2409.0
 20
1541.0
 30
0.0
 11
2371.0
 21
1541.0
 31
0.0
  0
LINE
  5
202
100
AcDbEntity
100
AcDbLine
  8
0
 62
256
370
-1
  6
ByLayer
 10
2371.0
 20
1541.0
 30
0.0
 11
2371.0
 21
1579.0
 31
0.0
  0
MTEXT
  5
203
100
AcDbEntity
100
AcDbMText
  8
0
 62
256
370
-1
  6
ByLayer
 10
1493.3867562760456167
 20
1399.8742308571452213
 30
0.0
 40
50.0
 41
100.0
 71
5
 72
2
  1
EVM50100
  7
normal
 50
0.0
 73
0
 44
1.0
  0
MTEXT
  5
204
100
AcDbEntity
100
AcDbMText
  8
0
 62
256
370
-1
  6
ByLayer
 10
1429.8865934066011505
 20
-170.0
 30
0.0
 40
50.0
 41
100.0
 71
5
 72
2
  1
5817
  7
normal
 50
0.0
 73
0
 44
1.0
  0
MTEXT
  5
205
100
AcDbEntity
100
AcDbMText
  8
0
 62
256
370
-1
  6
ByLayer
 10
534.8096703296728265
 20
-122.6619780219774043
 30
0.0
 40
50.0
 41
100.0
 71
5
 72
2
  1
750
  7
normal
 50
0.0
 73
0
 44
1.0
  0
MTEXT
  5
206
100
AcDbEntity
100
AcDbMText
  8
0
 62
256
370
-1
  6
ByLayer
 10
474.8096703296728833
 20
-12.6619780219773901
 30
0.0
 40
50.0
 41
100.0
 71
5
 72
2
  1
550
  7
normal
 50
0.0
 73
0
 44
1.0
  0
MTEXT
  5
207
100
AcDbEntity
100
AcDbMText
  8
0
 62
256
370
-1
  6
ByLayer
 10
456.6232967032992178
 20
77.3547252747260643
 30
0.0
 40
50.0
 41
100.0
 71
5
 72
2
  1
442
  7
normal
 50
0.0
 73
0
 44
1.0
  0
MTEXT
  5
208
100
AcDbEntity
100
AcDbMText
  8
0
 62
256
370
-1
  6
ByLayer
 10
449.3353846153869995
 20
186.4729670329680857
 30
0.0
 40
50.0
 41
100.0
 71
5
 72
2
  1
300
  7
normal
 50
0.0
 73
0
 44
1.0
  0
MTEXT
  5
209
100
AcDbEntity
100
AcDbMText
  8
0
 62
256
370
-1
  6
ByLayer
 10
2616.2558241758229087
 20
96.8606593406730099
 30
0.0
 40
50.0
 41
100.0
 71
5
 72
2
  1
150
  7
normallatin1
 50
90.0
 73
0
 44
1.0
  0
LINE
  5
20A
100
AcDbEntity
100
AcDbLine
  8
0
 62
256
370
-1
  6
ByLayer
 10
730.0
 20
439.0000000000001137
 30
0.0
 11
730.0
 21
230.0
 31
0.0
  0
MTEXT
  5
20B
100
AcDbEntity
100
AcDbMText
  8
0
 62
256
370
-1
  6
ByLayer
 10
718.5705494505532442
 20
499.3687912087938798
 30
0.0
 40
50.0
 41
100.0
 71
5
 72
2
  1
1525
  7
normal
 50
90.0
 73
0
 44
1.0
  0
LINE
  5
20C
100
AcDbEntity
100
AcDbLine
  8
0
 62
256
370
-1
  6
ByLayer
 10
890.0
 20
1560.0
 30
0.0
 11
890.0
 21
1510.0
 31
0.0
  0
LINE
  5
20D
100
AcDbEntity
100
AcDbLine
  8
0
 62
256
370
-1
  6
ByLayer
 10
890.0
 20
1560.0
 30
0.0
 11
1030.0
 21
1560.0
 31
0.0
  0
LINE
  5
20E
100
AcDbEntity
100
AcDbLine
  8
0
 62
256
370
-1
  6
ByLayer
 10
890.0
 20
1510.0
 30
0.0
 11
1030.0
 21
1510.0
 31
0.0
  0
LINE
  5
20F
100
AcDbEntity
100
AcDbLine
  8
0
 62
256
370
-1
  6
ByLayer
 10
1030.0
 20
1560.0
 30
0.0
 11
1030.0
 21
1510.0
 31
0.0
  0
CIRCLE
  5
210
100
AcDbEntity
100
AcDbCircle
  8
0
 62
256
370
-1
  6
ByLayer
 10
910.0
 20
1490.0
 30
0.0
 40
14.142135623730951
  0
CIRCLE
  5
211
100
AcDbEntity
100
AcDbCircle
  8
0
 62
256
370
-1
  6
ByLayer
 10
1010.0
 20
1490.0
 30
0.0
 40
14.142135623730951
  0
CIRCLE
  5
212
100
AcDbEntity
100
AcDbCircle
  8
0
 62
256
370
-1
  6
ByLayer
 10
940.0
 20
1490.0
 30
0.0
 40
14.142135623730951
  0
CIRCLE
  5
213
100
AcDbEntity
100
AcDbCircle
  8
0
 62
256
370
-1
  6
ByLayer
 10
980.0
 20
1490.0
 30
0.0
 40
14.142135623730951
  0
LINE
  5
214
100
AcDbEntity
100
AcDbLine
  8
0
 62
256
370
-1
  6
ByLayer
 10
890.0
 20
1490.0
 30
0.0
 11
1060.0
 21
1490.0
 31
0.0
  0
LINE
  5
215
100
AcDbEntity
100
AcDbLine
  8
0
 62
256
370
-1
  6
ByLayer
 10
908.0
 20
1640.0
 30
0.0
 11
908.0
 21
1560.0
 31
0.0
  0
LINE
  5
216
100
AcDbEntity
100
AcDbLine
  8
0
 62
256
370
-1
  6
ByLayer
 10
1012.0
 20
1640.0
 30
0.0
 11
1012.0
 21
1560.0
 31
0.0
  0
LINE
  5
217
100
AcDbEntity
100
AcDbLine
  8
0
 62
256
370
-1
  6
ByLayer
 10
908.0
 20
1640.0
 30
0.0
 11
1012.0
 21
1640.0
 31
0.0
  0
LINE
  5
218
100
AcDbEntity
100
AcDbLine
  8
0
 62
256
370
-1
  6
ByLayer
 10
1012.0
 20
1560.0
 30
0.0
 11
1012.0
 21
1510.0
 31
0.0
  0
LINE
  5
219
100
AcDbEntity
100
AcDbLine
  8
0
 62
256
370
-1
  6
ByLayer
 10
908.0
 20
1560.0
 30
0.0
 11
908.0
 21
1510.0
 31
0.0
  0
LINE
  5
21A
100
AcDbEntity
100
AcDbLine
  8
0
 62
256
370
-1
  6
ByLayer
 10
910.0
 20
1780.0
 30
0.0
 11
910.0
 21
1470.0
 31
0.0
  0
LINE
  5
21B
100
AcDbEntity
100
AcDbLine
  8
0
 62
256
370
-1
  6
ByLayer
 10
775.0
 20
1760.0
 30
0.0
 11
910.0
 21
1760.0
 31
0.0
  0
LINE
  5
21C
100
AcDbEntity
100
AcDbLine
  8
0
 62
256
370
-1
  6
ByLayer
 10
730.0
 20
790.0
 30
0.0
 11
730.0
 21
580.0
 31
0.0
  0
MTEXT
  5
21D
100
AcDbEntity
100
AcDbMText
  8
0
 62
256
370
-1
  6
ByLayer
 10
763.1463736263776809
 20
870.3674725274760249
 30
0.0
 40
50.0
 41
100.0
 71
5
 72
2
  1
2325
  7
normal
 50
90.0
 73
0
 44
1.0
  0
LINE
  5
21E
100
AcDbEntity
100
AcDbLine
  8
0
 62
256
370
-1
  6
ByLayer
 10
630.0
 20
1040.0
 30
0.0
 11
790.0
 21
1040.0
 31
0.0
  0
LINE
  5
21F
100
AcDbEntity
100
AcDbLine
  8
0
 62
256
370
-1
  6
ByLayer
 10
770.0
 20
970.0
 30
0.0
 11
770.0
 21
1040.0
 31
0.0
  0
MTEXT
  5
220
100
AcDbEntity
100
AcDbMText
  8
0
 62
256
370
-1
  6
ByLayer
 10
805.8918681318723429
 20
1202.2479120879161201
 30
0.0
 40
50.0
 41
100.0
 71
5
 72
2
  1
3117
  7
normal
 50
90.0
 73
0
 44
1.0
  0
LINE
  5
221
100
AcDbEntity
100
AcDbLine
  8
0
 62
256
370
-1
  6
ByLayer
 10
630.0
 20
1340.0
 30
0.0
 11
830.0
 21
1340.0
 31
0.0
  0
LINE
  5
222
100
AcDbEntity
100
AcDbLine
  8
0
 62
256
370
-1
  6
ByLayer
 10
810.0
 20
1340.0
 30
0.0
 11
810.0
 21
1280.0
 31
0.0
  0
LINE
  5
223
100
AcDbEntity
100
AcDbLine
  8
0
 62
256
370
-1
  6
ByLayer
 10
770.0
 20
780.0
 30
0.0
 11
770.0
 21
230.0
 31
0.0
  0
LINE
  5
224
100
AcDbEntity
100
AcDbLine
  8
0
 62
256
370
-1
  6
ByLayer
 10
810.0
 20
1120.0
 30
0.0
 11
810.0
 21
230.0
 31
0.0
  0
MTEXT
  5
225
100
AcDbEntity
100
AcDbMText
  8
0
 62
256
370
-1
  6
ByLayer
 10
856.8237362637406704
 20
871.3995604395652208
 30
0.0
 40
50.0
 41
100.0
 71
5
 72
2
  1
3917
  7
normal
 50
90.0
 73
0
 44
1.0
  0
LINE
  5
226
100
AcDbEntity
100
AcDbLine
  8
0
 62
256
370
-1
  6
ByLayer
 10
860.0
 20
790.0
 30
0.0
 11
860.0
 21
230.0
 31
0.0
  0
LINE
  5
227
100
AcDbEntity
100
AcDbLine
  8
0
 62
256
370
-1
  6
ByLayer
 10
630.0
 20
1590.0
 30
0.0
 11
880.0
 21
1590.0
 31
0.0
  0
LINE
  5
228
100
AcDbEntity
100
AcDbLine
  8
0
 62
256
370
-1
  6
ByLayer
 10
860.0
 20
1590.0
 30
0.0
 11
860.0
 21
960.0
 31
0.0
  0
MTEXT
  5
229
100
AcDbEntity
100
AcDbMText
  8
0
 62
256
370
-1
  6
ByLayer
 10
1038.7375824175878734
 20
996.0087912087965378
 30
0.0
 40
50.0
 41
100.0
 71
5
 72
2
  1
4367
  7
normallatin1
 50
90.0
 73
0
 44
1.0
  0
LINE
  5
22A
100
AcDbEntity
100
AcDbLine
  8
0
 62
256
370
-1
  6
ByLayer
 10
1090.0
 20
1610.0
 30
0.0
 11
1090.0
 21
1350.0
 31
0.0
  0
MTEXT
  5
22B
100
AcDbEntity
100
AcDbMText
  8
0
 62
256
370
-1
  6
ByLayer
 10
1095.1437362637420847
 20
1261.5498901098962961
 30
0.0
 40
50.0
 41
100.0
 71
5
 72
2
  1
3967
  7
normallatin1
 50
90.0
 73
0
 44
1.0
  0
LINE
  5
22C
100
AcDbEntity
100
AcDbLine
  8
0
 62
256
370
-1
  6
ByLayer
 10
1090.0
 20
1170.0
 30
0.0
 11
1090.0
 21
230.0
 31
0.0
  0
LINE
  5
22D
100
AcDbEntity
100
AcDbLine
  8
0
 62
256
370
-1
  6
ByLayer
 10
1140.0
 20
500.0
 30
0.0
 11
1140.0
 21
230.0
 31
0.0
  0
MTEXT
  5
22E
100
AcDbEntity
100
AcDbMText
  8
0
 62
256
370
-1
  6
ByLayer
 10
1136.9907692307751859
 20
584.9432967033005752
 30
0.0
 40
50.0
 41
100.0
 71
5
 72
2
  1
2375
  7
normal
 50
90.0
 73
0
 44
1.0
  0
LINE
  5
22F
100
AcDbEntity
100
AcDbLine
  8
0
 62
256
370
-1
  6
ByLayer
 10
1140.0
 20
1070.0
 30
0.0
 11
1140.0
 21
680.0
 31
0.0
  0
LINE
  5
230
100
AcDbEntity
100
AcDbLine
  8
0
 62
256
370
-1
  6
ByLayer
 10
1070.0
 20
1610.0
 30
0.0
 11
1266.0
 21
1610.0
 31
0.0
  0
LINE
  5
231
100
AcDbEntity
100
AcDbLine
  8
0
 62
256
370
-1
  6
ByLayer
 10
1120.0
 20
1070.0
 30
0.0
 11
1266.0
 21
1069.9999999999986358
 31
0.0
  0
LINE
  5
232
100
AcDbEntity
100
AcDbLine
  8
0
 62
256
370
-1
  6
ByLayer
 10
1040.0
 20
1490.0
 30
0.0
 11
1040.0
 21
1090.0
 31
0.0
  0
LINE
  5
233
100
AcDbEntity
100
AcDbLine
  8
0
 62
256
370
-1
  6
ByLayer
 10
1040.0
 20
900.0
 30
0.0
 11
1040.0
 21
230.0
 31
0.0
  0
MTEXT
  5
234
100
AcDbEntity
100
AcDbMText
  8
0
 62
256
370
-1
  6
ByLayer
 10
1313.3867562760456167
 20
1059.8742308571452213
 30
0.0
 40
50.0
 41
100.0
 71
5
 72
2
  1
J5
  7
normal
 50
0.0
 73
0
 44
1.0
  0
MTEXT
  5
235
100
AcDbEntity
100
AcDbMText
  8
0
 62
256
370
-1
  6
ByLayer
 10
1313.3867562760456167
 20
1219.8742308571452213
 30
0.0
 40
50.0
 41
100.0
 71
5
 72
2
  1
J6
  7
normal
 50
0.0
 73
0
 44
1.0
  0
MTEXT
  5
236
100
AcDbEntity
100
AcDbMText
  8
0
 62
256
370
-1
  6
ByLayer
 10
1933.3867562760456167
 20
1489.8742308571452213
 30
0.0
 40
50.0
 41
100.0
 71
5
 72
2
  1
J15
  7
normal
 50
0.0
 73
0
 44
1.0
  0
LINE
  5
237
100
AcDbEntity
100
AcDbLine
  8
0
 62
256
370
-1
  6
ByLayer
 10
2790.0
 20
410.0
 30
0.0
 11
2790.0
 21
530.0
 31
0.0
  0
LINE
  5
238
100
AcDbEntity
100
AcDbLine
  8
0
 62
256
370
-1
  6
ByLayer
 10
2790.0
 20
530.0
 30
0.0
 11
2790.0
 21
650.0
 31
0.0
  0
LINE
  5
239
100
AcDbEntity
100
AcDbLine
  8
0
 62
256
370
-1
  6
ByLayer
 10
2790.0
 20
650.0
 30
0.0
 11
2790.0
 21
770.0
 31
0.0
  0
LINE
  5
23A
100
AcDbEntity
100
AcDbLine
  8
0
 62
256
370
-1
  6
ByLayer
 10
2790.0
 20
770.0
 30
0.0
 11
2790.0
 21
890.0
 31
0.0
  0
LINE
  5
23B
100
AcDbEntity
100
AcDbLine
  8
0
 62
256
370
-1
  6
ByLayer
 10
2790.0
 20
890.0
 30
0.0
 11
2790.0
 21
1020.0
 31
0.0
  0
LINE
  5
23C
100
AcDbEntity
100
AcDbLine
  8
0
 62
256
370
-1
  6
ByLayer
 10
2790.0
 20
1020.0
 30
0.0
 11
2790.0
 21
1130.0
 31
0.0
  0
LINE
  5
23D
100
AcDbEntity
100
AcDbLine
  8
0
 62
256
370
-1
  6
ByLayer
 10
2790.0
 20
1130.0
 30
0.0
 11
2790.0
 21
1250.0
 31
0.0
  0
LINE
  5
23E
100
AcDbEntity
100
AcDbLine
  8
0
 62
256
370
-1
  6
ByLayer
 10
2790.0
 20
1250.0
 30
0.0
 11
2790.0
 21
1370.0
 31
0.0
  0
LINE
  5
23F
100
AcDbEntity
100
AcDbLine
  8
0
 62
256
370
-1
  6
ByLayer
 10
2790.0
 20
1370.0
 30
0.0
 11
2790.0
 21
1490.0
 31
0.0
  0
LINE
  5
240
100
AcDbEntity
100
AcDbLine
  8
0
 62
256
370
-1
  6
ByLayer
 10
2790.0
 20
230.0
 30
0.0
 11
2790.0
 21
410.0
 31
0.0
  0
LINE
  5
241
100
AcDbEntity
100
AcDbLine
  8
0
 62
256
370
-1
  6
ByLayer
 10
2500.0
 20
770.0
 30
0.0
 11
2810.0
 21
770.0
 31
0.0
  0
LINE
  5
242
100
AcDbEntity
100
AcDbLine
  8
0
 62
256
370
-1
  6
ByLayer
 10
2500.0
 20
890.0
 30
0.0
 11
2820.0
 21
890.0
 31
0.0
  0
LINE
  5
243
100
AcDbEntity
100
AcDbLine
  8
0
 62
256
370
-1
  6
ByLayer
 10
2510.0
 20
1130.0
 30
0.0
 11
2810.0
 21
1130.0
 31
0.0
  0
LINE
  5
244
100
AcDbEntity
100
AcDbLine
  8
0
 62
256
370
-1
  6
ByLayer
 10
2500.0
 20
1250.0
 30
0.0
 11
2810.0
 21
1250.0
 31
0.0
  0
LINE
  5
245
100
AcDbEntity
100
AcDbLine
  8
0
 62
256
370
-1
  6
ByLayer
 10
2500.0
 20
1370.0
 30
0.0
 11
2810.0
 21
1370.0
 31
0.0
  0
LINE
  5
246
100
AcDbEntity
100
AcDbLine
  8
0
 62
256
370
-1
  6
ByLayer
 10
2500.0
 20
1490.0
 30
0.0
 11
2810.0
 21
1490.0
 31
0.0
  0
LINE
  5
247
100
AcDbEntity
100
AcDbLine
  8
0
 62
256
370
-1
  6
ByLayer
 10
2500.0
 20
1010.0
 30
0.0
 11
2810.0
 21
1010.0
 31
0.0
  0
LINE
  5
248
100
AcDbEntity
100
AcDbLine
  8
0
 62
256
370
-1
  6
ByLayer
 10
2500.0
 20
650.0
 30
0.0
 11
2810.0
 21
650.0
 31
0.0
  0
LINE
  5
249
100
AcDbEntity
100
AcDbLine
  8
0
 62
256
370
-1
  6
ByLayer
 10
2500.0
 20
530.0
 30
0.0
 11
2810.0
 21
530.0
 31
0.0
  0
LINE
  5
24A
100
AcDbEntity
100
AcDbLine
  8
0
 62
256
370
-1
  6
ByLayer
 10
2500.0
 20
410.0
 30
0.0
 11
2810.0
 21
410.0
 31
0.0
  0
LINE
  5
24B
100
AcDbEntity
100
AcDbLine
  8
0
 62
256
370
-1
  6
ByLayer
 10
2860.0
 20
807.0000000000017053
 30
0.0
 11
2860.0
 21
230.0
 31
0.0
  0
MTEXT
  5
24C
100
AcDbEntity
100
AcDbMText
  8
0
 62
256
370
-1
  6
ByLayer
 10
2858.5837362637312253
 20
891.5534065934216414
 30
0.0
 40
50.0
 41
100.0
 71
5
 72
2
  1
3558
  7
normallatin1
 50
90.0
 73
0
 44
1.0
  0
LINE
  5
24D
100
AcDbEntity
100
AcDbLine
  8
0
 62
256
370
-1
  6
ByLayer
 10
2350.0
 20
1560.0
 30
0.0
 11
2880.0
 21
1560.0
 31
0.0
  0
LINE
  5
24E
100
AcDbEntity
100
AcDbLine
  8
0
 62
256
370
-1
  6
ByLayer
 10
2860.0
 20
1560.0
 30
0.0
 11
2860.0
 21
980.0
 31
0.0
  0
MTEXT
  5
24F
100
AcDbEntity
100
AcDbMText
  8
0
 62
256
370
-1
  6
ByLayer
 10
2922.2109890109841217
 20
1076.1459340659494046
 30
0.0
 40
50.0
 41
100.0
 71
5
 72
2
  1
3850
  7
normallatin1
 50
90.0
 73
0
 44
1.0
  0
LINE
  5
250
100
AcDbEntity
100
AcDbLine
  8
0
 62
256
370
-1
  6
ByLayer
 10
2920.0
 20
1610.0
 30
0.0
 11
2920.0
 21
1170.0
 31
0.0
  0
LINE
  5
251
100
AcDbEntity
100
AcDbLine
  8
0
 62
256
370
-1
  6
ByLayer
 10
2920.0
 20
980.0
 30
0.0
 11
2920.0
 21
230.0
 31
0.0
  0
MTEXT
  5
252
100
AcDbEntity
100
AcDbMText
  8
0
 62
256
370
-1
  6
ByLayer
 10
2971.2290109890054737
 20
1261.6536263736425099
 30
0.0
 40
50.0
 41
100.0
 71
5
 72
2
  1
4033
  7
normallatin1
 50
90.0
 73
0
 44
1.0
  0
LINE
  5
253
100
AcDbEntity
100
AcDbLine
  8
0
 62
256
370
-1
  6
ByLayer
 10
2980.0
 20
1650.0
 30
0.0
 11
2980.0
 21
1360.0
 31
0.0
  0
LINE
  5
254
100
AcDbEntity
100
AcDbLine
  8
0
 62
256
370
-1
  6
ByLayer
 10
2980.0
 20
1160.0
 30
0.0
 11
2980.0
 21
230.0
 31
0.0
  0
LINE
  5
255
100
AcDbEntity
100
AcDbLine
  8
0
 62
256
370
-1
  6
ByLayer
 10
2420.0
 20
1610.0
 30
0.0
 11
2950.0
 21
1610.0
 31
0.0
  0
LINE
  5
256
100
AcDbEntity
100
AcDbLine
  8
0
 62
256
370
-1
  6
ByLayer
 10
2580.0
 20
1650.0
 30
0.0
 11
3000.0
 21
1650.0
 31
0.0
  0
MTEXT
  5
257
100
AcDbEntity
100
AcDbMText
  8
0
 62
256
370
-1
  6
ByLayer
 10
2744.9999944444443827
 20
340.0013888888901192
 30
0.0
 40
50.0
 41
100.0
 71
5
 72
2
  1
558
  7
normallatin1
 50
90.0
 73
0
 44
1.0
  0
MTEXT
  5
258
100
AcDbEntity
100
AcDbMText
  8
0
 62
256
370
-1
  6
ByLayer
 10
2743.3767032967007253
 20
466.0123076923218832
 30
0.0
 40
50.0
 41
100.0
 71
5
 72
2
  1
200
  7
normallatin1
 50
90.0
 73
0
 44
1.0
  0
MTEXT
  5
259
100
AcDbEntity
100
AcDbMText
  8
0
 62
256
370
-1
  6
ByLayer
 10
2743.3098901098869646
 20
592.3850549450689869
 30
0.0
 40
50.0
 41
100.0
 71
5
 72
2
  1
400
  7
normallatin1
 50
90.0
 73
0
 44
1.0
  0
MTEXT
  5
25A
100
AcDbEntity
100
AcDbMText
  8
0
 62
256
370
-1
  6
ByLayer
 10
2741.4294505494467558
 20
714.198681318695435
 30
0.0
 40
50.0
 41
100.0
 71
5
 72
2
  1
300
  7
normallatin1
 50
90.0
 73
0
 44
1.0
  0
MTEXT
  5
25B
100
AcDbEntity
100
AcDbMText
  8
0
 62
256
370
-1
  6
ByLayer
 10
2746.6698901098843635
 20
831.4698901099040995
 30
0.0
 40
50.0
 41
100.0
 71
5
 72
2
  1
300
  7
normallatin1
 50
90.0
 73
0
 44
1.0
  0
MTEXT
  5
25C
100
AcDbEntity
100
AcDbMText
  8
0
 62
256
370
-1
  6
ByLayer
 10
2746.6698901098843635
 20
951.4698901099040995
 30
0.0
 40
50.0
 41
100.0
 71
5
 72
2
  1
300
  7
normallatin1
 50
90.0
 73
0
 44
1.0
  0
MTEXT
  5
25D
100
AcDbEntity
100
AcDbMText
  8
0
 62
256
370
-1
  6
ByLayer
 10
2746.6698901098843635
 20
1071.4698901099040995
 30
0.0
 40
50.0
 41
100.0
 71
5
 72
2
  1
300
  7
normallatin1
 50
90.0
 73
0
 44
1.0
  0
MTEXT
  5
25E
100
AcDbEntity
100
AcDbMText
  8
0
 62
256
370
-1
  6
ByLayer
 10
2747.5182417582354901
 20
1191.4698901099040995
 30
0.0
 40
50.0
 41
100.0
 71
5
 72
2
  1
300
  7
normallatin1
 50
90.0
 73
0
 44
1.0
  0
MTEXT
  5
25F
100
AcDbEntity
100
AcDbMText
  8
0
 62
256
370
-1
  6
ByLayer
 10
2747.5182417582354901
 20
1311.4698901099040995
 30
0.0
 40
50.0
 41
100.0
 71
5
 72
2
  1
300
  7
normallatin1
 50
90.0
 73
0
 44
1.0
  0
MTEXT
  5
260
100
AcDbEntity
100
AcDbMText
  8
0
 62
256
370
-1
  6
ByLayer
 10
2745.5709890109810658
 20
1426.9274725274867706
 30
0.0
 40
50.0
 41
100.0
 71
5
 72
2
  1
300
  7
normallatin1
 50
90.0
 73
0
 44
1.0
  0
LINE
  5
261
100
AcDbEntity
100
AcDbLine
  8
0
 62
256
370
-1
  6
ByLayer
 10
2580.0
 20
1570.0
 30
0.0
 11
2640.0
 21
1570.0
 31
0.0
  0
MTEXT
  5
262
100
AcDbEntity
100
AcDbMText
  8
0
 62
256
370
-1
  6
ByLayer
 10
1743.3867562760456167
 20
669.8742308571452213
 30
0.0
 40
50.0
 41
100.0
 71
5
 72
2
  1
(c)\~2009\~Dmitriy\~I.Cherkashin
  7
normal
 50
0.0
 73
0
 44
1.0
  0
MTEXT
  5
263
100
AcDbEntity
100
AcDbMText
  8
0
 62
256
370
-1
  6
ByLayer
 10
1743.3867562760456167
 20
569.8742308571452213
 30
0.0
 40
50.0
 41
100.0
 71
5
 72
2
  1
dch@ucrouter.ru
  7
normal
 50
0.0
 73
0
 44
1.0
  0
MTEXT
  5
264
100
AcDbEntity
100
AcDbMText
  8
0
 62
256
370
-1
  6
ByLayer
 10
1743.3867562760456167
 20
469.8742308571452213
 30
0.0
 40
50.0
 41
100.0
 71
5
 72
2
  1
cherkashindi@miptclub.ru
  7
normal
 50
0.0
 73
0
 44
1.0
  0
MTEXT
  5
265
100
AcDbEntity
100
AcDbMText
  8
0
 62
256
370
-1
  6
ByLayer
 10
1743.3867562760456167
 20
369.8742308571452213
 30
0.0
 40
50.0
 41
100.0
 71
5
 72
2
  1
divch@users.sourceforge.net
  7
normal
 50
0.0
 73
0
 44
1.0
  0
MTEXT
  5
266
100
AcDbEntity
100
AcDbMText
  8
0
 62
256
370
-1
  6
ByLayer
 10
2293.3867562760456167
 20
1549.8742308571452213
 30
0.0
 40
50.0
 41
100.0
 71
5
 72
2
  1
J15
  7
normal
 50
0.0
 73
0
 44
1.0
  0
MTEXT
  5
267
100
AcDbEntity
100
AcDbMText
  8
0
 62
256
370
-1
  6
ByLayer
 10
2263.3867562760456167
 20
1459.8742308571452213
 30
0.0
 40
50.0
 41
100.0
 71
7
 72
2
  1
D11
  7
normal
 50
0.0
 73
0
 44
1.0
  0
MTEXT
  5
268
100
AcDbEntity
100
AcDbMText
  8
0
 62
256
370
-1
  6
ByLayer
 10
2263.3867562760456167
 20
1349.8742308571452213
 30
0.0
 40
50.0
 41
100.0
 71
7
 72
2
  1
D10
  7
normal
 50
0.0
 73
0
 44
1.0
  0
MTEXT
  5
269
100
AcDbEntity
100
AcDbMText
  8
0
 62
256
370
-1
  6
ByLayer
 10
1793.3867562760456167
 20
1299.8742308571452213
 30
0.0
 40
50.0
 41
100.0
 71
5
 72
2
  1
unit\~-\~1\~mill=1/1000\~inch\~
  7
normal
 50
0.0
 73
0
 44
1.0
  0
MTEXT
  5
26A
100
AcDbEntity
100
AcDbMText
  8
0
 62
256
370
-1
  6
ByLayer
 10
2263.3867562760456167
 20
1229.8742308571452213
 30
0.0
 40
50.0
 41
100.0
 71
7
 72
2
  1
D9
  7
normal
 50
0.0
 73
0
 44
1.0
  0
MTEXT
  5
26B
100
AcDbEntity
100
AcDbMText
  8
0
 62
256
370
-1
  6
ByLayer
 10
2263.3867562760456167
 20
389.8742308571452213
 30
0.0
 40
50.0
 41
100.0
 71
7
 72
2
  1
D7
  7
normal
 50
0.0
 73
0
 44
1.0
  0
MTEXT
  5
26C
100
AcDbEntity
100
AcDbMText
  8
0
 62
256
370
-1
  6
ByLayer
 10
2263.3867562760456167
 20
629.8742308571452213
 30
0.0
 40
50.0
 41
100.0
 71
7
 72
2
  1
D4
  7
normal
 50
0.0
 73
0
 44
1.0
  0
MTEXT
  5
26D
100
AcDbEntity
100
AcDbMText
  8
0
 62
256
370
-1
  6
ByLayer
 10
2263.3867562760456167
 20
1109.8742308571452213
 30
0.0
 40
50.0
 41
100.0
 71
7
 72
2
  1
D8
  7
normal
 50
0.0
 73
0
 44
1.0
  0
MTEXT
  5
26E
100
AcDbEntity
100
AcDbMText
  8
0
 62
256
370
-1
  6
ByLayer
 10
2263.3867562760456167
 20
989.8742308571452213
 30
0.0
 40
50.0
 41
100.0
 71
7
 72
2
  1
D3
  7
normal
 50
0.0
 73
0
 44
1.0
  0
MTEXT
  5
26F
100
AcDbEntity
100
AcDbMText
  8
0
 62
256
370
-1
  6
ByLayer
 10
2263.3867562760456167
 20
869.8742308571452213
 30
0.0
 40
50.0
 41
100.0
 71
7
 72
2
  1
D2
  7
normal
 50
0.0
 73
0
 44
1.0
  0
MTEXT
  5
270
100
AcDbEntity
100
AcDbMText
  8
0
 62
256
370
-1
  6
ByLayer
 10
2263.3867562760456167
 20
749.8742308571452213
 30
0.0
 40
50.0
 41
100.0
 71
7
 72
2
  1
D5
  7
normal
 50
0.0
 73
0
 44
1.0
  0
LINE
  5
271
100
AcDbEntity
100
AcDbLine
  8
0
 62
256
370
-1
  6
ByLayer
 10
435.0
 20
652.0
 30
0.0
 11
463.0
 21
652.0
 31
0.0
  0
LINE
  5
272
100
AcDbEntity
100
AcDbLine
  8
0
 62
256
370
-1
  6
ByLayer
 10
463.0
 20
652.0
 30
0.0
 11
463.0
 21
624.0
 31
0.0
  0
LINE
  5
273
100
AcDbEntity
100
AcDbLine
  8
0
 62
256
370
-1
  6
ByLayer
 10
463.0
 20
624.0
 30
0.0
 11
435.0
 21
624.0
 31
0.0
  0
LINE
  5
274
100
AcDbEntity
100
AcDbLine
  8
0
 62
256
370
-1
  6
ByLayer
 10
435.0
 20
624.0
 30
0.0
 11
435.0
 21
652.0
 31
0.0
  0
MTEXT
  5
275
100
AcDbEntity
100
AcDbMText
  8
0
 62
256
370
-1
  6
ByLayer
 10
324.4444422211369101
 20
1675.5557788878038536
 30
0.0
 40
50.0
 41
100.0
 71
7
 72
2
  1
150
  7
normal
 50
90.0
 73
0
 44
1.0
  0
MTEXT
  5
276
100
AcDbEntity
100
AcDbMText
  8
0
 62
256
370
-1
  6
ByLayer
 10
763.0993022930999814
 20
1859.81540126945265
 30
0.0
 40
50.0
 41
100.0
 71
5
 72
2
  1
2433
  7
normallatin1
 50
0.0
 73
0
 44
1.0
  0
LINE
  5
277
100
AcDbEntity
100
AcDbLine
  8
0
 62
256
370
-1
  6
ByLayer
 10
1281.0
 20
1589.0
 30
0.0
 11
1319.0
 21
1589.0
 31
0.0
  0
LINE
  5
278
100
AcDbEntity
100
AcDbLine
  8
0
 62
256
370
-1
  6
ByLayer
 10
1319.0
 20
1589.0
 30
0.0
 11
1319.0
 21
1551.0
 31
0.0
  0
LINE
  5
279
100
AcDbEntity
100
AcDbLine
  8
0
 62
256
370
-1
  6
ByLayer
 10
1319.0
 20
1551.0
 30
0.0
 11
1281.0
 21
1551.0
 31
0.0
  0
LINE
  5
27A
100
AcDbEntity
100
AcDbLine
  8
0
 62
256
370
-1
  6
ByLayer
 10
1281.0
 20
1551.0
 30
0.0
 11
1281.0
 21
1589.0
 31
0.0
  0
LINE
  5
27B
100
AcDbEntity
100
AcDbLine
  8
0
 62
256
370
-1
  6
ByLayer
 10
1300.0
 20
1880.0
 30
0.0
 11
1300.0
 21
1530.0
 31
0.0
  0
LINE
  5
27C
100
AcDbEntity
100
AcDbLine
  8
0
 62
256
370
-1
  6
ByLayer
 10
1171.0
 20
1629.0
 30
0.0
 11
1209.0
 21
1629.0
 31
0.0
  0
LINE
  5
27D
100
AcDbEntity
100
AcDbLine
  8
0
 62
256
370
-1
  6
ByLayer
 10
1209.0
 20
1629.0
 30
0.0
 11
1209.0
 21
1591.0
 31
0.0
  0
LINE
  5
27E
100
AcDbEntity
100
AcDbLine
  8
0
 62
256
370
-1
  6
ByLayer
 10
1209.0
 20
1591.0
 30
0.0
 11
1171.0
 21
1591.0
 31
0.0
  0
LINE
  5
27F
100
AcDbEntity
100
AcDbLine
  8
0
 62
256
370
-1
  6
ByLayer
 10
1171.0
 20
1591.0
 30
0.0
 11
1171.0
 21
1629.0
 31
0.0
  0
LINE
  5
280
100
AcDbEntity
100
AcDbLine
  8
0
 62
256
370
-1
  6
ByLayer
 10
1190.0
 20
1830.0
 30
0.0
 11
1190.0
 21
1580.0
 31
0.0
  0
LINE
  5
281
100
AcDbEntity
100
AcDbLine
  8
0
 62
256
370
-1
  6
ByLayer
 10
390.0
 20
1650.0
 30
0.0
 11
390.0
 21
1980.0
 31
0.0
  0
LINE
  5
282
100
AcDbEntity
100
AcDbLine
  8
0
 62
256
370
-1
  6
ByLayer
 10
390.0
 20
140.0
 30
0.0
 11
420.0
 21
150.0
 31
0.0
  0
LINE
  5
283
100
AcDbEntity
100
AcDbLine
  8
0
 62
256
370
-1
  6
ByLayer
 10
390.0
 20
140.0
 30
0.0
 11
420.0
 21
130.0
 31
0.0
  0
LINE
  5
284
100
AcDbEntity
100
AcDbLine
  8
0
 62
256
370
-1
  6
ByLayer
 10
390.0
 20
30.0
 30
0.0
 11
420.0
 21
40.0
 31
0.0
  0
LINE
  5
285
100
AcDbEntity
100
AcDbLine
  8
0
 62
256
370
-1
  6
ByLayer
 10
390.0
 20
30.0
 30
0.0
 11
420.0
 21
20.0
 31
0.0
  0
LINE
  5
286
100
AcDbEntity
100
AcDbLine
  8
0
 62
256
370
-1
  6
ByLayer
 10
390.0
 20
-60.0
 30
0.0
 11
420.0
 21
-50.0
 31
0.0
  0
LINE
  5
287
100
AcDbEntity
100
AcDbLine
  8
0
 62
256
370
-1
  6
ByLayer
 10
390.0
 20
-60.0
 30
0.0
 11
420.0
 21
-70.0
 31
0.0
  0
LINE
  5
288
100
AcDbEntity
100
AcDbLine
  8
0
 62
256
370
-1
  6
ByLayer
 10
390.0
 20
-130.0
 30
0.0
 11
420.0
 21
-120.0
 31
0.0
  0
LINE
  5
289
100
AcDbEntity
100
AcDbLine
  8
0
 62
256
370
-1
  6
ByLayer
 10
390.0
 20
-130.0
 30
0.0
 11
420.0
 21
-140.0
 31
0.0
  0
LINE
  5
28A
100
AcDbEntity
100
AcDbLine
  8
0
 62
256
370
-1
  6
ByLayer
 10
390.0
 20
-170.0
 30
0.0
 11
420.0
 21
-160.0
 31
0.0
  0
LINE
  5
28B
100
AcDbEntity
100
AcDbLine
  8
0
 62
256
370
-1
  6
ByLayer
 10
390.0
 20
-170.0
 30
0.0
 11
420.0
 21
-180.0
 31
0.0
  0
LINE
  5
28C
100
AcDbEntity
100
AcDbLine
  8
0
 62
256
370
-1
  6
ByLayer
 10
500.0
 20
140.0
 30
0.0
 11
470.0
 21
150.0
 31
0.0
  0
LINE
  5
28D
100
AcDbEntity
100
AcDbLine
  8
0
 62
256
370
-1
  6
ByLayer
 10
500.0
 20
140.0
 30
0.0
 11
470.0
 21
130.0
 31
0.0
  0
LINE
  5
28E
100
AcDbEntity
100
AcDbLine
  8
0
 62
256
370
-1
  6
ByLayer
 10
550.0
 20
30.0
 30
0.0
 11
520.0
 21
40.0
 31
0.0
  0
LINE
  5
28F
100
AcDbEntity
100
AcDbLine
  8
0
 62
256
370
-1
  6
ByLayer
 10
550.0
 20
30.0
 30
0.0
 11
520.0
 21
20.0
 31
0.0
  0
LINE
  5
290
100
AcDbEntity
100
AcDbLine
  8
0
 62
256
370
-1
  6
ByLayer
 10
560.0
 20
-60.0
 30
0.0
 11
530.0
 21
-50.0
 31
0.0
  0
LINE
  5
291
100
AcDbEntity
100
AcDbLine
  8
0
 62
256
370
-1
  6
ByLayer
 10
560.0
 20
-60.0
 30
0.0
 11
530.0
 21
-70.0
 31
0.0
  0
LINE
  5
292
100
AcDbEntity
100
AcDbLine
  8
0
 62
256
370
-1
  6
ByLayer
 10
670.0
 20
-130.0
 30
0.0
 11
640.0
 21
-120.0
 31
0.0
  0
LINE
  5
293
100
AcDbEntity
100
AcDbLine
  8
0
 62
256
370
-1
  6
ByLayer
 10
670.0
 20
-130.0
 30
0.0
 11
640.0
 21
-140.0
 31
0.0
  0
LINE
  5
294
100
AcDbEntity
100
AcDbLine
  8
0
 62
256
370
-1
  6
ByLayer
 10
390.0
 20
1680.0
 30
0.0
 11
420.0
 21
1690.0
 31
0.0
  0
LINE
  5
295
100
AcDbEntity
100
AcDbLine
  8
0
 62
256
370
-1
  6
ByLayer
 10
390.0
 20
1680.0
 30
0.0
 11
420.0
 21
1670.0
 31
0.0
  0
LINE
  5
296
100
AcDbEntity
100
AcDbLine
  8
0
 62
256
370
-1
  6
ByLayer
 10
500.0
 20
1680.0
 30
0.0
 11
470.0
 21
1670.0
 31
0.0
  0
LINE
  5
297
100
AcDbEntity
100
AcDbLine
  8
0
 62
256
370
-1
  6
ByLayer
 10
500.0
 20
1680.0
 30
0.0
 11
470.0
 21
1690.0
 31
0.0
  0
LINE
  5
298
100
AcDbEntity
100
AcDbLine
  8
0
 62
256
370
-1
  6
ByLayer
 10
390.0
 20
1760.0
 30
0.0
 11
420.0
 21
1770.0
 31
0.0
  0
LINE
  5
299
100
AcDbEntity
100
AcDbLine
  8
0
 62
256
370
-1
  6
ByLayer
 10
390.0
 20
1760.0
 30
0.0
 11
420.0
 21
1750.0
 31
0.0
  0
LINE
  5
29A
100
AcDbEntity
100
AcDbLine
  8
0
 62
256
370
-1
  6
ByLayer
 10
390.0
 20
1810.0
 30
0.0
 11
420.0
 21
1820.0
 31
0.0
  0
LINE
  5
29B
100
AcDbEntity
100
AcDbLine
  8
0
 62
256
370
-1
  6
ByLayer
 10
390.0
 20
1810.0
 30
0.0
 11
420.0
 21
1800.0
 31
0.0
  0
LINE
  5
29C
100
AcDbEntity
100
AcDbLine
  8
0
 62
256
370
-1
  6
ByLayer
 10
390.0
 20
1860.0
 30
0.0
 11
420.0
 21
1870.0
 31
0.0
  0
LINE
  5
29D
100
AcDbEntity
100
AcDbLine
  8
0
 62
256
370
-1
  6
ByLayer
 10
390.0
 20
1860.0
 30
0.0
 11
420.0
 21
1850.0
 31
0.0
  0
LINE
  5
29E
100
AcDbEntity
100
AcDbLine
  8
0
 62
256
370
-1
  6
ByLayer
 10
390.0
 20
1900.0
 30
0.0
 11
420.0
 21
1910.0
 31
0.0
  0
LINE
  5
29F
100
AcDbEntity
100
AcDbLine
  8
0
 62
256
370
-1
  6
ByLayer
 10
390.0
 20
1900.0
 30
0.0
 11
420.0
 21
1890.0
 31
0.0
  0
LINE
  5
2A0
100
AcDbEntity
100
AcDbLine
  8
0
 62
256
370
-1
  6
ByLayer
 10
390.0
 20
1960.0
 30
0.0
 11
420.0
 21
1970.0
 31
0.0
  0
LINE
  5
2A1
100
AcDbEntity
100
AcDbLine
  8
0
 62
256
370
-1
  6
ByLayer
 10
390.0
 20
1960.0
 30
0.0
 11
420.0
 21
1950.0
 31
0.0
  0
LINE
  5
2A2
100
AcDbEntity
100
AcDbLine
  8
0
 62
256
370
-1
  6
ByLayer
 10
910.0
 20
1760.0
 30
0.0
 11
880.0
 21
1750.0
 31
0.0
  0
LINE
  5
2A3
100
AcDbEntity
100
AcDbLine
  8
0
 62
256
370
-1
  6
ByLayer
 10
910.0
 20
1760.0
 30
0.0
 11
880.0
 21
1770.0
 31
0.0
  0
LINE
  5
2A4
100
AcDbEntity
100
AcDbLine
  8
0
 62
256
370
-1
  6
ByLayer
 10
1190.0
 20
1810.0
 30
0.0
 11
1160.0
 21
1800.0
 31
0.0
  0
LINE
  5
2A5
100
AcDbEntity
100
AcDbLine
  8
0
 62
256
370
-1
  6
ByLayer
 10
1190.0
 20
1810.0
 30
0.0
 11
1160.0
 21
1820.0
 31
0.0
  0
LINE
  5
2A6
100
AcDbEntity
100
AcDbLine
  8
0
 62
256
370
-1
  6
ByLayer
 10
1300.0
 20
1860.0
 30
0.0
 11
1270.0
 21
1850.0
 31
0.0
  0
LINE
  5
2A7
100
AcDbEntity
100
AcDbLine
  8
0
 62
256
370
-1
  6
ByLayer
 10
1300.0
 20
1860.0
 30
0.0
 11
1270.0
 21
1870.0
 31
0.0
  0
LINE
  5
2A8
100
AcDbEntity
100
AcDbLine
  8
0
 62
256
370
-1
  6
ByLayer
 10
2580.0
 20
1820.0
 30
0.0
 11
2550.0
 21
1810.0
 31
0.0
  0
LINE
  5
2A9
100
AcDbEntity
100
AcDbLine
  8
0
 62
256
370
-1
  6
ByLayer
 10
2580.0
 20
1820.0
 30
0.0
 11
2550.0
 21
1830.0
 31
0.0
  0
LINE
  5
2AA
100
AcDbEntity
100
AcDbLine
  8
0
 62
256
370
-1
  6
ByLayer
 10
2580.0
 20
1960.0
 30
0.0
 11
2550.0
 21
1950.0
 31
0.0
  0
LINE
  5
2AB
100
AcDbEntity
100
AcDbLine
  8
0
 62
256
370
-1
  6
ByLayer
 10
2580.0
 20
1960.0
 30
0.0
 11
2550.0
 21
1970.0
 31
0.0
  0
LINE
  5
2AC
100
AcDbEntity
100
AcDbLine
  8
0
 62
256
370
-1
  6
ByLayer
 10
2060.0
 20
1820.0
 30
0.0
 11
2090.0
 21
1830.0
 31
0.0
  0
LINE
  5
2AD
100
AcDbEntity
100
AcDbLine
  8
0
 62
256
370
-1
  6
ByLayer
 10
2060.0
 20
1820.0
 30
0.0
 11
2090.0
 21
1810.0
 31
0.0
  0
LINE
  5
2AE
100
AcDbEntity
100
AcDbLine
  8
0
 62
256
370
-1
  6
ByLayer
 10
2580.0
 20
190.0
 30
0.0
 11
2550.0
 21
200.0
 31
0.0
  0
LINE
  5
2AF
100
AcDbEntity
100
AcDbLine
  8
0
 62
256
370
-1
  6
ByLayer
 10
2580.0
 20
190.0
 30
0.0
 11
2550.0
 21
180.0
 31
0.0
  0
LINE
  5
2B0
100
AcDbEntity
100
AcDbLine
  8
0
 62
256
370
-1
  6
ByLayer
 10
2650.0
 20
270.0
 30
0.0
 11
2650.0
 21
300.0
 31
0.0
  0
LINE
  5
2B1
100
AcDbEntity
100
AcDbLine
  8
0
 62
256
370
-1
  6
ByLayer
 10
2650.0
 20
300.0
 30
0.0
 11
2650.0
 21
310.0
 31
0.0
  0
LINE
  5
2B2
100
AcDbEntity
100
AcDbLine
  8
0
 62
256
370
-1
  6
ByLayer
 10
2640.0
 20
310.0
 30
0.0
 11
2580.0
 21
310.0
 31
0.0
  0
LINE
  5
2B3
100
AcDbEntity
100
AcDbLine
  8
0
 62
256
370
-1
  6
ByLayer
 10
2640.0
 20
1570.0
 30
0.0
 11
2640.0
 21
310.0
 31
0.0
  0
LINE
  5
2B4
100
AcDbEntity
100
AcDbLine
  8
0
 62
256
370
-1
  6
ByLayer
 10
2650.0
 20
270.0
 30
0.0
 11
2660.0
 21
300.0
 31
0.0
  0
LINE
  5
2B5
100
AcDbEntity
100
AcDbLine
  8
0
 62
256
370
-1
  6
ByLayer
 10
2650.0
 20
270.0
 30
0.0
 11
2640.0
 21
300.0
 31
0.0
  0
LINE
  5
2B6
100
AcDbEntity
100
AcDbLine
  8
0
 62
256
370
-1
  6
ByLayer
 10
2650.0
 20
230.0
 30
0.0
 11
2640.0
 21
200.0
 31
0.0
  0
LINE
  5
2B7
100
AcDbEntity
100
AcDbLine
  8
0
 62
256
370
-1
  6
ByLayer
 10
2650.0
 20
230.0
 30
0.0
 11
2660.0
 21
200.0
 31
0.0
  0
LINE
  5
2B8
100
AcDbEntity
100
AcDbLine
  8
0
 62
256
370
-1
  6
ByLayer
 10
2570.0
 20
410.0
 30
0.0
 11
2820.0
 21
410.0
 31
0.0
  0
LINE
  5
2B9
100
AcDbEntity
100
AcDbLine
  8
0
 62
256
370
-1
  6
ByLayer
 10
2790.0
 20
410.0
 30
0.0
 11
2800.0
 21
440.0
 31
0.0
  0
LINE
  5
2BA
100
AcDbEntity
100
AcDbLine
  8
0
 62
256
370
-1
  6
ByLayer
 10
2790.0
 20
410.0
 30
0.0
 11
2780.0
 21
440.0
 31
0.0
  0
LINE
  5
2BB
100
AcDbEntity
100
AcDbLine
  8
0
 62
256
370
-1
  6
ByLayer
 10
2790.0
 20
530.0
 30
0.0
 11
2800.0
 21
560.0
 31
0.0
  0
LINE
  5
2BC
100
AcDbEntity
100
AcDbLine
  8
0
 62
256
370
-1
  6
ByLayer
 10
2790.0
 20
530.0
 30
0.0
 11
2780.0
 21
560.0
 31
0.0
  0
LINE
  5
2BD
100
AcDbEntity
100
AcDbLine
  8
0
 62
256
370
-1
  6
ByLayer
 10
2790.0
 20
230.0
 30
0.0
 11
2800.0
 21
260.0
 31
0.0
  0
LINE
  5
2BE
100
AcDbEntity
100
AcDbLine
  8
0
 62
256
370
-1
  6
ByLayer
 10
2790.0
 20
230.0
 30
0.0
 11
2780.0
 21
260.0
 31
0.0
  0
LINE
  5
2BF
100
AcDbEntity
100
AcDbLine
  8
0
 62
256
370
-1
  6
ByLayer
 10
2790.0
 20
650.0
 30
0.0
 11
2800.0
 21
680.0
 31
0.0
  0
LINE
  5
2C0
100
AcDbEntity
100
AcDbLine
  8
0
 62
256
370
-1
  6
ByLayer
 10
2790.0
 20
650.0
 30
0.0
 11
2780.0
 21
680.0
 31
0.0
  0
LINE
  5
2C1
100
AcDbEntity
100
AcDbLine
  8
0
 62
256
370
-1
  6
ByLayer
 10
2790.0
 20
770.0
 30
0.0
 11
2800.0
 21
800.0
 31
0.0
  0
LINE
  5
2C2
100
AcDbEntity
100
AcDbLine
  8
0
 62
256
370
-1
  6
ByLayer
 10
2790.0
 20
770.0
 30
0.0
 11
2780.0
 21
800.0
 31
0.0
  0
LINE
  5
2C3
100
AcDbEntity
100
AcDbLine
  8
0
 62
256
370
-1
  6
ByLayer
 10
2790.0
 20
890.0
 30
0.0
 11
2800.0
 21
920.0
 31
0.0
  0
LINE
  5
2C4
100
AcDbEntity
100
AcDbLine
  8
0
 62
256
370
-1
  6
ByLayer
 10
2790.0
 20
890.0
 30
0.0
 11
2780.0
 21
920.0
 31
0.0
  0
LINE
  5
2C5
100
AcDbEntity
100
AcDbLine
  8
0
 62
256
370
-1
  6
ByLayer
 10
2790.0
 20
1010.0
 30
0.0
 11
2800.0
 21
1040.0
 31
0.0
  0
LINE
  5
2C6
100
AcDbEntity
100
AcDbLine
  8
0
 62
256
370
-1
  6
ByLayer
 10
2790.0
 20
1010.0
 30
0.0
 11
2780.0
 21
1040.0
 31
0.0
  0
LINE
  5
2C7
100
AcDbEntity
100
AcDbLine
  8
0
 62
256
370
-1
  6
ByLayer
 10
2790.0
 20
1130.0
 30
0.0
 11
2800.0
 21
1160.0
 31
0.0
  0
LINE
  5
2C8
100
AcDbEntity
100
AcDbLine
  8
0
 62
256
370
-1
  6
ByLayer
 10
2790.0
 20
1130.0
 30
0.0
 11
2780.0
 21
1160.0
 31
0.0
  0
LINE
  5
2C9
100
AcDbEntity
100
AcDbLine
  8
0
 62
256
370
-1
  6
ByLayer
 10
2790.0
 20
1250.0
 30
0.0
 11
2800.0
 21
1280.0
 31
0.0
  0
LINE
  5
2CA
100
AcDbEntity
100
AcDbLine
  8
0
 62
256
370
-1
  6
ByLayer
 10
2790.0
 20
1250.0
 30
0.0
 11
2780.0
 21
1280.0
 31
0.0
  0
LINE
  5
2CB
100
AcDbEntity
100
AcDbLine
  8
0
 62
256
370
-1
  6
ByLayer
 10
2790.0
 20
1370.0
 30
0.0
 11
2800.0
 21
1400.0
 31
0.0
  0
LINE
  5
2CC
100
AcDbEntity
100
AcDbLine
  8
0
 62
256
370
-1
  6
ByLayer
 10
2790.0
 20
1370.0
 30
0.0
 11
2780.0
 21
1400.0
 31
0.0
  0
LINE
  5
2CD
100
AcDbEntity
100
AcDbLine
  8
0
 62
256
370
-1
  6
ByLayer
 10
2790.0
 20
410.0
 30
0.0
 11
2780.0
 21
380.0
 31
0.0
  0
LINE
  5
2CE
100
AcDbEntity
100
AcDbLine
  8
0
 62
256
370
-1
  6
ByLayer
 10
2790.0
 20
410.0
 30
0.0
 11
2800.0
 21
380.0
 31
0.0
  0
LINE
  5
2CF
100
AcDbEntity
100
AcDbLine
  8
0
 62
256
370
-1
  6
ByLayer
 10
2790.0
 20
530.0
 30
0.0
 11
2780.0
 21
500.0
 31
0.0
  0
LINE
  5
2D0
100
AcDbEntity
100
AcDbLine
  8
0
 62
256
370
-1
  6
ByLayer
 10
2790.0
 20
530.0
 30
0.0
 11
2800.0
 21
500.0
 31
0.0
  0
LINE
  5
2D1
100
AcDbEntity
100
AcDbLine
  8
0
 62
256
370
-1
  6
ByLayer
 10
2790.0
 20
650.0
 30
0.0
 11
2780.0
 21
620.0
 31
0.0
  0
LINE
  5
2D2
100
AcDbEntity
100
AcDbLine
  8
0
 62
256
370
-1
  6
ByLayer
 10
2790.0
 20
650.0
 30
0.0
 11
2800.0
 21
620.0
 31
0.0
  0
LINE
  5
2D3
100
AcDbEntity
100
AcDbLine
  8
0
 62
256
370
-1
  6
ByLayer
 10
2790.0
 20
770.0
 30
0.0
 11
2780.0
 21
740.0
 31
0.0
  0
LINE
  5
2D4
100
AcDbEntity
100
AcDbLine
  8
0
 62
256
370
-1
  6
ByLayer
 10
2790.0
 20
770.0
 30
0.0
 11
2800.0
 21
740.0
 31
0.0
  0
LINE
  5
2D5
100
AcDbEntity
100
AcDbLine
  8
0
 62
256
370
-1
  6
ByLayer
 10
2790.0
 20
890.0
 30
0.0
 11
2780.0
 21
860.0
 31
0.0
  0
LINE
  5
2D6
100
AcDbEntity
100
AcDbLine
  8
0
 62
256
370
-1
  6
ByLayer
 10
2790.0
 20
890.0
 30
0.0
 11
2800.0
 21
860.0
 31
0.0
  0
LINE
  5
2D7
100
AcDbEntity
100
AcDbLine
  8
0
 62
256
370
-1
  6
ByLayer
 10
2790.0
 20
1010.0
 30
0.0
 11
2780.0
 21
980.0
 31
0.0
  0
LINE
  5
2D8
100
AcDbEntity
100
AcDbLine
  8
0
 62
256
370
-1
  6
ByLayer
 10
2790.0
 20
1010.0
 30
0.0
 11
2800.0
 21
980.0
 31
0.0
  0
LINE
  5
2D9
100
AcDbEntity
100
AcDbLine
  8
0
 62
256
370
-1
  6
ByLayer
 10
2790.0
 20
1130.0
 30
0.0
 11
2780.0
 21
1100.0
 31
0.0
  0
LINE
  5
2DA
100
AcDbEntity
100
AcDbLine
  8
0
 62
256
370
-1
  6
ByLayer
 10
2790.0
 20
1130.0
 30
0.0
 11
2800.0
 21
1100.0
 31
0.0
  0
LINE
  5
2DB
100
AcDbEntity
100
AcDbLine
  8
0
 62
256
370
-1
  6
ByLayer
 10
2790.0
 20
1250.0
 30
0.0
 11
2780.0
 21
1220.0
 31
0.0
  0
LINE
  5
2DC
100
AcDbEntity
100
AcDbLine
  8
0
 62
256
370
-1
  6
ByLayer
 10
2790.0
 20
1250.0
 30
0.0
 11
2800.0
 21
1220.0
 31
0.0
  0
LINE
  5
2DD
100
AcDbEntity
100
AcDbLine
  8
0
 62
256
370
-1
  6
ByLayer
 10
2790.0
 20
1370.0
 30
0.0
 11
2780.0
 21
1340.0
 31
0.0
  0
LINE
  5
2DE
100
AcDbEntity
100
AcDbLine
  8
0
 62
256
370
-1
  6
ByLayer
 10
2790.0
 20
1370.0
 30
0.0
 11
2800.0
 21
1340.0
 31
0.0
  0
LINE
  5
2DF
100
AcDbEntity
100
AcDbLine
  8
0
 62
256
370
-1
  6
ByLayer
 10
2790.0
 20
1490.0
 30
0.0
 11
2780.0
 21
1460.0
 31
0.0
  0
LINE
  5
2E0
100
AcDbEntity
100
AcDbLine
  8
0
 62
256
370
-1
  6
ByLayer
 10
2790.0
 20
1490.0
 30
0.0
 11
2800.0
 21
1460.0
 31
0.0
  0
LINE
  5
2E1
100
AcDbEntity
100
AcDbLine
  8
0
 62
256
370
-1
  6
ByLayer
 10
2860.0
 20
1560.0
 30
0.0
 11
2850.0
 21
1530.0
 31
0.0
  0
LINE
  5
2E2
100
AcDbEntity
100
AcDbLine
  8
0
 62
256
370
-1
  6
ByLayer
 10
2860.0
 20
1560.0
 30
0.0
 11
2870.0
 21
1530.0
 31
0.0
  0
LINE
  5
2E3
100
AcDbEntity
100
AcDbLine
  8
0
 62
256
370
-1
  6
ByLayer
 10
2920.0
 20
1610.0
 30
0.0
 11
2910.0
 21
1580.0
 31
0.0
  0
LINE
  5
2E4
100
AcDbEntity
100
AcDbLine
  8
0
 62
256
370
-1
  6
ByLayer
 10
2920.0
 20
1610.0
 30
0.0
 11
2930.0
 21
1580.0
 31
0.0
  0
LINE
  5
2E5
100
AcDbEntity
100
AcDbLine
  8
0
 62
256
370
-1
  6
ByLayer
 10
2980.0
 20
1650.0
 30
0.0
 11
2970.0
 21
1620.0
 31
0.0
  0
LINE
  5
2E6
100
AcDbEntity
100
AcDbLine
  8
0
 62
256
370
-1
  6
ByLayer
 10
2980.0
 20
1650.0
 30
0.0
 11
2990.0
 21
1620.0
 31
0.0
  0
LINE
  5
2E7
100
AcDbEntity
100
AcDbLine
  8
0
 62
256
370
-1
  6
ByLayer
 10
2860.0
 20
230.0
 30
0.0
 11
2870.0
 21
260.0
 31
0.0
  0
LINE
  5
2E8
100
AcDbEntity
100
AcDbLine
  8
0
 62
256
370
-1
  6
ByLayer
 10
2860.0
 20
230.0
 30
0.0
 11
2850.0
 21
260.0
 31
0.0
  0
LINE
  5
2E9
100
AcDbEntity
100
AcDbLine
  8
0
 62
256
370
-1
  6
ByLayer
 10
2920.0
 20
230.0
 30
0.0
 11
2930.0
 21
260.0
 31
0.0
  0
LINE
  5
2EA
100
AcDbEntity
100
AcDbLine
  8
0
 62
256
370
-1
  6
ByLayer
 10
2920.0
 20
230.0
 30
0.0
 11
2910.0
 21
260.0
 31
0.0
  0
LINE
  5
2EB
100
AcDbEntity
100
AcDbLine
  8
0
 62
256
370
-1
  6
ByLayer
 10
2980.0
 20
230.0
 30
0.0
 11
2990.0
 21
260.0
 31
0.0
  0
LINE
  5
2EC
100
AcDbEntity
100
AcDbLine
  8
0
 62
256
370
-1
  6
ByLayer
 10
2980.0
 20
230.0
 30
0.0
 11
2970.0
 21
260.0
 31
0.0
  0
LINE
  5
2ED
100
AcDbEntity
100
AcDbLine
  8
0
 62
256
370
-1
  6
ByLayer
 10
1150.0
 20
260.0
 30
0.0
 11
1140.0
 21
230.0
 31
0.0
  0
LINE
  5
2EE
100
AcDbEntity
100
AcDbLine
  8
0
 62
256
370
-1
  6
ByLayer
 10
1140.0
 20
230.0
 30
0.0
 11
1130.0
 21
260.0
 31
0.0
  0
LINE
  5
2EF
100
AcDbEntity
100
AcDbLine
  8
0
 62
256
370
-1
  6
ByLayer
 10
1100.0
 20
260.0
 30
0.0
 11
1090.0
 21
230.0
 31
0.0
  0
LINE
  5
2F0
100
AcDbEntity
100
AcDbLine
  8
0
 62
256
370
-1
  6
ByLayer
 10
1090.0
 20
230.0
 30
0.0
 11
1080.0
 21
260.0
 31
0.0
  0
LINE
  5
2F1
100
AcDbEntity
100
AcDbLine
  8
0
 62
256
370
-1
  6
ByLayer
 10
1050.0
 20
260.0
 30
0.0
 11
1040.0
 21
230.0
 31
0.0
  0
LINE
  5
2F2
100
AcDbEntity
100
AcDbLine
  8
0
 62
256
370
-1
  6
ByLayer
 10
1040.0
 20
230.0
 30
0.0
 11
1030.0
 21
260.0
 31
0.0
  0
LINE
  5
2F3
100
AcDbEntity
100
AcDbLine
  8
0
 62
256
370
-1
  6
ByLayer
 10
870.0
 20
260.0
 30
0.0
 11
860.0
 21
230.0
 31
0.0
  0
LINE
  5
2F4
100
AcDbEntity
100
AcDbLine
  8
0
 62
256
370
-1
  6
ByLayer
 10
860.0
 20
230.0
 30
0.0
 11
850.0
 21
260.0
 31
0.0
  0
LINE
  5
2F5
100
AcDbEntity
100
AcDbLine
  8
0
 62
256
370
-1
  6
ByLayer
 10
820.0
 20
260.0
 30
0.0
 11
810.0
 21
230.0
 31
0.0
  0
LINE
  5
2F6
100
AcDbEntity
100
AcDbLine
  8
0
 62
256
370
-1
  6
ByLayer
 10
810.0
 20
230.0
 30
0.0
 11
800.0
 21
260.0
 31
0.0
  0
LINE
  5
2F7
100
AcDbEntity
100
AcDbLine
  8
0
 62
256
370
-1
  6
ByLayer
 10
780.0
 20
260.0
 30
0.0
 11
770.0
 21
230.0
 31
0.0
  0
LINE
  5
2F8
100
AcDbEntity
100
AcDbLine
  8
0
 62
256
370
-1
  6
ByLayer
 10
770.0
 20
230.0
 30
0.0
 11
760.0
 21
260.0
 31
0.0
  0
LINE
  5
2F9
100
AcDbEntity
100
AcDbLine
  8
0
 62
256
370
-1
  6
ByLayer
 10
740.0
 20
260.0
 30
0.0
 11
730.0
 21
230.0
 31
0.0
  0
LINE
  5
2FA
100
AcDbEntity
100
AcDbLine
  8
0
 62
256
370
-1
  6
ByLayer
 10
730.0
 20
230.0
 30
0.0
 11
720.0
 21
260.0
 31
0.0
  0
LINE
  5
2FB
100
AcDbEntity
100
AcDbLine
  8
0
 62
256
370
-1
  6
ByLayer
 10
720.0
 20
760.0
 30
0.0
 11
730.0
 21
790.0
 31
0.0
  0
LINE
  5
2FC
100
AcDbEntity
100
AcDbLine
  8
0
 62
256
370
-1
  6
ByLayer
 10
730.0
 20
790.0
 30
0.0
 11
740.0
 21
760.0
 31
0.0
  0
LINE
  5
2FD
100
AcDbEntity
100
AcDbLine
  8
0
 62
256
370
-1
  6
ByLayer
 10
760.0
 20
1010.0
 30
0.0
 11
770.0
 21
1040.0
 31
0.0
  0
LINE
  5
2FE
100
AcDbEntity
100
AcDbLine
  8
0
 62
256
370
-1
  6
ByLayer
 10
770.0
 20
1040.0
 30
0.0
 11
780.0
 21
1010.0
 31
0.0
  0
LINE
  5
2FF
100
AcDbEntity
100
AcDbLine
  8
0
 62
256
370
-1
  6
ByLayer
 10
1130.0
 20
1040.0
 30
0.0
 11
1140.0
 21
1070.0
 31
0.0
  0
LINE
  5
300
100
AcDbEntity
100
AcDbLine
  8
0
 62
256
370
-1
  6
ByLayer
 10
1140.0
 20
1070.0
 30
0.0
 11
1150.0
 21
1040.0
 31
0.0
  0
LINE
  5
301
100
AcDbEntity
100
AcDbLine
  8
0
 62
256
370
-1
  6
ByLayer
 10
800.0
 20
1310.0
 30
0.0
 11
810.0
 21
1340.0
 31
0.0
  0
LINE
  5
302
100
AcDbEntity
100
AcDbLine
  8
0
 62
256
370
-1
  6
ByLayer
 10
810.0
 20
1340.0
 30
0.0
 11
820.0
 21
1310.0
 31
0.0
  0
LINE
  5
303
100
AcDbEntity
100
AcDbLine
  8
0
 62
256
370
-1
  6
ByLayer
 10
850.0
 20
1560.0
 30
0.0
 11
860.0
 21
1590.0
 31
0.0
  0
LINE
  5
304
100
AcDbEntity
100
AcDbLine
  8
0
 62
256
370
-1
  6
ByLayer
 10
860.0
 20
1590.0
 30
0.0
 11
870.0
 21
1560.0
 31
0.0
  0
LINE
  5
305
100
AcDbEntity
100
AcDbLine
  8
0
 62
256
370
-1
  6
ByLayer
 10
1030.0
 20
1460.0
 30
0.0
 11
1040.0
 21
1490.0
 31
0.0
  0
LINE
  5
306
100
AcDbEntity
100
AcDbLine
  8
0
 62
256
370
-1
  6
ByLayer
 10
1040.0
 20
1490.0
 30
0.0
 11
1050.0
 21
1460.0
 31
0.0
  0
LINE
  5
307
100
AcDbEntity
100
AcDbLine
  8
0
 62
256
370
-1
  6
ByLayer
 10
1080.0
 20
1580.0
 30
0.0
 11
1090.0
 21
1610.0
 31
0.0
  0
LINE
  5
308
100
AcDbEntity
100
AcDbLine
  8
0
 62
256
370
-1
  6
ByLayer
 10
1090.0
 20
1610.0
 30
0.0
 11
1100.0
 21
1580.0
 31
0.0
  0
LINE
  5
309
100
AcDbEntity
100
AcDbLine
  8
0
 62
256
370
-1
  6
ByLayer
 10
360.0
 20
200.0
 30
0.0
 11
370.0
 21
230.0
 31
0.0
  0
LINE
  5
30A
100
AcDbEntity
100
AcDbLine
  8
0
 62
256
370
-1
  6
ByLayer
 10
370.0
 20
230.0
 30
0.0
 11
380.0
 21
200.0
 31
0.0
  0
LINE
  5
30B
100
AcDbEntity
100
AcDbLine
  8
0
 62
256
370
-1
  6
ByLayer
 10
360.0
 20
300.0
 30
0.0
 11
370.0
 21
270.0
 31
0.0
  0
LINE
  5
30C
100
AcDbEntity
100
AcDbLine
  8
0
 62
256
370
-1
  6
ByLayer
 10
370.0
 20
270.0
 30
0.0
 11
380.0
 21
300.0
 31
0.0
  0
LINE
  5
30D
100
AcDbEntity
100
AcDbLine
  8
0
 62
256
370
-1
  6
ByLayer
 10
250.0
 20
260.0
 30
0.0
 11
240.0
 21
230.0
 31
0.0
  0
LINE
  5
30E
100
AcDbEntity
100
AcDbLine
  8
0
 62
256
370
-1
  6
ByLayer
 10
240.0
 20
230.0
 30
0.0
 11
230.0
 21
260.0
 31
0.0
  0
LINE
  5
30F
100
AcDbEntity
100
AcDbLine
  8
0
 62
256
370
-1
  6
ByLayer
 10
210.0
 20
260.0
 30
0.0
 11
200.0
 21
230.0
 31
0.0
  0
LINE
  5
310
100
AcDbEntity
100
AcDbLine
  8
0
 62
256
370
-1
  6
ByLayer
 10
200.0
 20
230.0
 30
0.0
 11
190.0
 21
260.0
 31
0.0
  0
LINE
  5
311
100
AcDbEntity
100
AcDbLine
  8
0
 62
256
370
-1
  6
ByLayer
 10
170.0
 20
260.0
 30
0.0
 11
160.0
 21
230.0
 31
0.0
  0
LINE
  5
312
100
AcDbEntity
100
AcDbLine
  8
0
 62
256
370
-1
  6
ByLayer
 10
160.0
 20
230.0
 30
0.0
 11
150.0
 21
260.0
 31
0.0
  0
LINE
  5
313
100
AcDbEntity
100
AcDbLine
  8
0
 62
256
370
-1
  6
ByLayer
 10
110.0
 20
260.0
 30
0.0
 11
100.0
 21
230.0
 31
0.0
  0
LINE
  5
314
100
AcDbEntity
100
AcDbLine
  8
0
 62
256
370
-1
  6
ByLayer
 10
100.0
 20
230.0
 30
0.0
 11
90.0
 21
260.0
 31
0.0
  0
LINE
  5
315
100
AcDbEntity
100
AcDbLine
  8
0
 62
256
370
-1
  6
ByLayer
 10
50.0
 20
260.0
 30
0.0
 11
40.0
 21
230.0
 31
0.0
  0
LINE
  5
316
100
AcDbEntity
100
AcDbLine
  8
0
 62
256
370
-1
  6
ByLayer
 10
40.0
 20
230.0
 30
0.0
 11
30.0
 21
260.0
 31
0.0
  0
LINE
  5
317
100
AcDbEntity
100
AcDbLine
  8
0
 62
256
370
-1
  6
ByLayer
 10
290.0
 20
450.0
 30
0.0
 11
300.0
 21
480.0
 31
0.0
  0
LINE
  5
318
100
AcDbEntity
100
AcDbLine
  8
0
 62
256
370
-1
  6
ByLayer
 10
300.0
 20
480.0
 30
0.0
 11
310.0
 21
450.0
 31
0.0
  0
LINE
  5
319
100
AcDbEntity
100
AcDbLine
  8
0
 62
256
370
-1
  6
ByLayer
 10
230.0
 20
610.0
 30
0.0
 11
240.0
 21
640.0
 31
0.0
  0
LINE
  5
31A
100
AcDbEntity
100
AcDbLine
  8
0
 62
256
370
-1
  6
ByLayer
 10
240.0
 20
640.0
 30
0.0
 11
250.0
 21
610.0
 31
0.0
  0
LINE
  5
31B
100
AcDbEntity
100
AcDbLine
  8
0
 62
256
370
-1
  6
ByLayer
 10
190.0
 20
930.0
 30
0.0
 11
200.0
 21
960.0
 31
0.0
  0
LINE
  5
31C
100
AcDbEntity
100
AcDbLine
  8
0
 62
256
370
-1
  6
ByLayer
 10
200.0
 20
960.0
 30
0.0
 11
210.0
 21
930.0
 31
0.0
  0
LINE
  5
31D
100
AcDbEntity
100
AcDbLine
  8
0
 62
256
370
-1
  6
ByLayer
 10
150.0
 20
1210.0
 30
0.0
 11
160.0
 21
1240.0
 31
0.0
  0
LINE
  5
31E
100
AcDbEntity
100
AcDbLine
  8
0
 62
256
370
-1
  6
ByLayer
 10
160.0
 20
1240.0
 30
0.0
 11
170.0
 21
1210.0
 31
0.0
  0
LINE
  5
31F
100
AcDbEntity
100
AcDbLine
  8
0
 62
256
370
-1
  6
ByLayer
 10
340.0
 20
1580.0
 30
0.0
 11
350.0
 21
1610.0
 31
0.0
  0
LINE
  5
320
100
AcDbEntity
100
AcDbLine
  8
0
 62
256
370
-1
  6
ByLayer
 10
350.0
 20
1610.0
 30
0.0
 11
360.0
 21
1580.0
 31
0.0
  0
LINE
  5
321
100
AcDbEntity
100
AcDbLine
  8
0
 62
256
370
-1
  6
ByLayer
 10
350.0
 20
1650.0
 30
0.0
 11
360.0
 21
1680.0
 31
0.0
  0
LINE
  5
322
100
AcDbEntity
100
AcDbLine
  8
0
 62
256
370
-1
  6
ByLayer
 10
350.0
 20
1650.0
 30
0.0
 11
340.0
 21
1680.0
 31
0.0
  0
LINE
  5
323
100
AcDbEntity
100
AcDbLine
  8
0
 62
256
370
-1
  6
ByLayer
 10
90.0
 20
1580.0
 30
0.0
 11
100.0
 21
1610.0
 31
0.0
  0
LINE
  5
324
100
AcDbEntity
100
AcDbLine
  8
0
 62
256
370
-1
  6
ByLayer
 10
100.0
 20
1610.0
 30
0.0
 11
110.0
 21
1580.0
 31
0.0
  0
LINE
  5
325
100
AcDbEntity
100
AcDbLine
  8
0
 62
256
370
-1
  6
ByLayer
 10
30.0
 20
1620.0
 30
0.0
 11
40.0
 21
1650.0
 31
0.0
  0
LINE
  5
326
100
AcDbEntity
100
AcDbLine
  8
0
 62
256
370
-1
  6
ByLayer
 10
40.0
 20
1650.0
 30
0.0
 11
50.0
 21
1620.0
 31
0.0
  0
LINE
  5
327
100
AcDbEntity
100
AcDbLine
  8
0
 62
256
370
-1
  6
ByLayer
 10
40.0
 20
230.0
 30
0.0
 11
40.0
 21
1010.0
 31
0.0
  0
CIRCLE
  5
328
100
AcDbEntity
100
AcDbCircle
  8
0
 62
256
370
-1
  6
ByLayer
 10
2390.0
 20
1610.0
 30
0.0
 40
30.0
  0
CIRCLE
  5
329
100
AcDbEntity
100
AcDbCircle
  8
0
 62
256
370
-1
  6
ByLayer
 10
2390.0
 20
270.0
 30
0.0
 40
30.0
  0
LINE
  5
32A
100
AcDbEntity
100
AcDbLine
  8
0
 62
256
370
-1
  6
ByLayer
 10
2390.0
 20
278.9999999999988631
 30
0.0
 11
2390.0
 21
-190.0
 31
0.0
  0
LINE
  5
32B
100
AcDbEntity
100
AcDbLine
  8
0
 62
256
370
-1
  6
ByLayer
 10
2390.0
 20
-170.0
 30
0.0
 11
2360.0
 21
-160.0
 31
0.0
  0
LINE
  5
32C
100
AcDbEntity
100
AcDbLine
  8
0
 62
256
370
-1
  6
ByLayer
 10
2390.0
 20
-170.0
 30
0.0
 11
2360.0
 21
-180.0
 31
0.0
  0
LINE
  5
32D
100
AcDbEntity
100
AcDbLine
  8
0
 62
256
370
-1
  6
ByLayer
 10
1510.0
 20
-170.0
 30
0.0
 11
2390.0
 21
-170.0
 31
0.0
  0
LINE
  5
32E
100
AcDbEntity
100
AcDbLine
  8
0
 62
256
370
-1
  6
ByLayer
 10
2340.0
 20
270.0
 30
0.0
 11
2670.0
 21
270.0
 31
0.0
  0
LINE
  5
32F
100
AcDbEntity
100
AcDbLine
  8
0
 62
256
370
-1
  6
ByLayer
 10
2470.0
 20
1920.0
 30
0.0
 11
2470.0
 21
1530.0
 31
0.0
  0
LINE
  5
330
100
AcDbEntity
100
AcDbLine
  8
0
 62
256
370
-1
  6
ByLayer
 10
2470.0
 20
1900.0
 30
0.0
 11
2440.0
 21
1890.0
 31
0.0
  0
LINE
  5
331
100
AcDbEntity
100
AcDbLine
  8
0
 62
256
370
-1
  6
ByLayer
 10
2470.0
 20
1900.0
 30
0.0
 11
2440.0
 21
1910.0
 31
0.0
  0
LINE
  5
332
100
AcDbEntity
100
AcDbLine
  8
0
 62
256
370
-1
  6
ByLayer
 10
1480.0
 20
1900.0
 30
0.0
 11
2470.0
 21
1900.0
 31
0.0
  0
LINE
  5
333
100
AcDbEntity
100
AcDbLine
  8
0
 62
256
370
-1
  6
ByLayer
 10
2390.0
 20
190.0
 30
0.0
 11
2420.0
 21
200.0
 31
0.0
  0
LINE
  5
334
100
AcDbEntity
100
AcDbLine
  8
0
 62
256
370
-1
  6
ByLayer
 10
2390.0
 20
190.0
 30
0.0
 11
2420.0
 21
180.0
 31
0.0
  0
LINE
  5
335
100
AcDbEntity
100
AcDbLine
  8
0
 62
256
370
-1
  6
ByLayer
 10
2390.0
 20
190.0
 30
0.0
 11
2580.0
 21
190.0
 31
0.0
  0
MTEXT
  5
336
100
AcDbEntity
100
AcDbMText
  8
0
 62
256
370
-1
  6
ByLayer
 10
2486.8606593406730099
 20
143.7441758241768639
 30
0.0
 40
50.0
 41
100.0
 71
5
 72
2
  1
308
  7
normal
 50
0.0
 73
0
 44
1.0
  0
LINE
  5
337
100
AcDbEntity
100
AcDbLine
  8
0
 62
256
370
-1
  6
ByLayer
 10
300.0
 20
230.0
 30
0.0
 11
310.0
 21
260.0
 31
0.0
  0
LINE
  5
338
100
AcDbEntity
100
AcDbLine
  8
0
 62
256
370
-1
  6
ByLayer
 10
300.0
 20
230.0
 30
0.0
 11
290.0
 21
260.0
 31
0.0
  0
ENDSEC
  0
SECTION
  2
OBJECTS
  0
DICTIONARY
  5
C
100
AcDbDictionary
280
0
281
1
  3
ACAD_GROUP
350
D
  3
ACAD_LAYOUT
350
1A
  3
ACAD_MLINESTYLE
350
17
  3
ACAD_PLOTSETTINGS
350
19
  3
ACAD_PLOTSTYLENAME
350
E
  3
AcDbVariableDictionary
350
339
  0
DICTIONARY
  5
D
100
AcDbDictionary
280
0
281
1
  0
ACDBDICTIONARYWDFLT
  5
E
100
AcDbDictionary
281
1
  3
Normal
350
F
100
AcDbDictionaryWithDefault
340
F
  0
ACDBPLACEHOLDER
  5
F
  0
DICTIONARY
  5
17
100
AcDbDictionary
280
0
281
1
  3
Standard
350
18
  0
MLINESTYLE
  5
18
100
AcDbMlineStyle
  2
STANDARD
 70
0
  3

 62
256
 51
90.0
 52
90.0
 71
2
 49
0.5
 62
256
  6
BYLAYER
 49
-0.5
 62
256
  6
BYLAYER
  0
DICTIONARY
  5
19
100
AcDbDictionary
280
0
281
1
  0
DICTIONARY
  5
1A
100
AcDbDictionary
281
1
  3
Layout1
350
1E
  3
Layout2
350
26
  3
Model
350
22
  0
LAYOUT
  5
1E
100
AcDbPlotSettings
  1

  2
C:\Program Files\AutoCAD 2002\plotters\DWF ePlot (optimized for plotting).pc3
  4

  6

 40
0.0
 41
0.0
 42
0.0
 43
0.0
 44
0.0
 45
0.0
 46
0.0
 47
0.0
 48
0.0
 49
0.0
140
0.0
141
0.0
142
1.0
143
1.0
 70
688
 72
0
 73
0
 74
5
  7

 75
16
147
1.0
148
0.0
149
0.0
100
AcDbLayout
  1
Layout1
 70
1
 71
1
 10
0.0
 20
0.0
 11
420.0
 21
297.0
 12
0.0
 22
0.0
 32
0.0
 14
100000000000000000000.0
 24
100000000000000000000.0
 34
100000000000000000000.0
 15
-100000000000000000000.0
 25
-100000000000000000000.0
 35
-100000000000000000000.0
146
0.0
 13
0.0
 23
0.0
 33
0.0
 16
1.0
 26
0.0
 36
0.0
 17
0.0
 27
1.0
 37
0.0
 76
0
330
1B
  0
LAYOUT
  5
22
100
AcDbPlotSettings
  1

  2
C:\Program Files\AutoCAD 2002\plotters\DWF ePlot (optimized for plotting).pc3
  4

  6

 40
0.0
 41
0.0
 42
0.0
 43
0.0
 44
0.0
 45
0.0
 46
0.0
 47
0.0
 48
0.0
 49
0.0
140
0.0
141
0.0
142
1.0
143
1.0
 70
1712
 72
0
 73
0
 74
0
  7

 75
0
147
1.0
148
0.0
149
0.0
100
AcDbLayout
  1
Model
 70
1
 71
0
 10
0.0
 20
0.0
 11
12.0
 21
9.0
 12
0.0
 22
0.0
 32
0.0
 14
0.0
 24
0.0
 34
0.0
 15
0.0
 25
0.0
 35
0.0
146
0.0
 13
0.0
 23
0.0
 33
0.0
 16
1.0
 26
0.0
 36
0.0
 17
0.0
 27
1.0
 37
0.0
 76
0
330
1F
  0
LAYOUT
  5
26
100
AcDbPlotSettings
  1

  2
C:\Program Files\AutoCAD 2002\plotters\DWF ePlot (optimized for plotting).pc3
  4

  6

 40
0.0
 41
0.0
 42
0.0
 43
0.0
 44
0.0
 45
0.0
 46
0.0
 47
0.0
 48
0.0
 49
0.0
140
0.0
141
0.0
142
1.0
143
1.0
 70
688
 72
0
 73
0
 74
5
  7

 75
16
147
1.0
148
0.0
149
0.0
100
AcDbLayout
  1
Layout2
 70
1
 71
2
 10
0.0
 20
0.0
 11
12.0
 21
9.0
 12
0.0
 22
0.0
 32
0.0
 14
0.0
 24
0.0
 34
0.0
 15
0.0
 25
0.0
 35
0.0
146
0.0
 13
0.0
 23
0.0
 33
0.0
 16
1.0
 26
0.0
 36
0.0
 17
0.0
 27
1.0
 37
0.0
 76
0
330
23
  0
DICTIONARY
  5
339
100
AcDbDictionary
281
1
  3
DIMASSOC
350
33B
  3
HIDETEXT
350
33A
  0
DICTIONARYVAR
  5
33A
100
DictionaryVariables
280
0
  1
2
  0
DICTIONARYVAR
  5
33B
100
DictionaryVariables
280
0
  1
1
  0
ENDSEC
  0
EOF
